Oops, an error
Loading. Please wait.

The Metronome Acoustic tab

3,814 views 60 this week
1 commentread comment
1 2 3 4 5
x 9
add to favorites
×
Save as Personal and add changes to this tab that will be seen only by you. Learn more ›
×
You can save this tab as Personal to edit and correct it or add notes. All changes will be seen only by you. Learn more »
launch autoscroll
font size
0
reset
how to read this tab
guitar tuner
edit
Autoscroll
slow
fast
+/-
esc
set tempo
stop
Author
Difficulty
About this tab version
Song fully tabbed out including chords, picking, and riffs. Was this info helpful? Yes No
Pinegrove - The Metronome (https://www.youtube.com/watch?v=HnOHkjCjc2k)

**Hey guys only things I'm not 100% sure on are the last chorus with the open strumming and the fill he adds
at the end. If you have any suggestions feel free.**

[Intro]/[Verse 1]: Alternates between Abminor and E major shapes
    Abmin                             E
e|---------------------------------------------------------------------------|
B|----------0---------------0------------------0---------------5-4p2p0-------|
G|-----4--------4------4--------4--------4--------4------4-------------------|
D|---------------------------------------------------------------------------|
A|---------------------------------------------------------------------------|
E|--4-----4---------4-----4-----------0-----0---------0-----0----------------|

e|---------------------------------------------------------------------------|
B|------------2p0--0--------------2p0--4-------------0---------------0-------|
G|-----4------4------------4------4------------4--------4------4--------4----|
D|---------------------------------------------------------------------------|
A|---------------------------------------------------------------------------|
E|--4-----4------------4------4-------------0-----0---------0-----0----------|

    Abmin                             E
    The night my...                                    neck-----
e|---------------------------------------------------------------------------|
B|----------0---------------0------------------0---------------0-------------|
G|-----4--------4------4--------4--------4--------4------4--------4----------|
D|---------------------------------------------------------------------------|
A|---------------------------------------------------------------------------|
E|--4-----4---------4-----4-----------0-----0---------0-----0----------------|
   
    Abmin                                E
   lace fell off
e|---------------------------------------------------------------------------|
B|-----------0----------------2p0--4-------------0--------------0------------|
G|-----4--------4-------4-----4-------------4-------4-----4--------4---------|
D|---------------------------------------------------------------------------|
A|---------------------------------------------------------------------------|
E|--4-----4----------4-----4-------------0----0--------0-----0---------------|

    Abmin                             Abmin
 You fluttered through my...             capillaries like a...
e|---------------------------------------------------------------------------|
B|----------0---------------0------------------0---------------0-------------|
G|-----4--------4------4--------4--------4--------4------4--------4----------|
D|---------------------------------------------------------------------------|
A|---------------------------------------------------------------------------|
E|--4-----4---------4-----4-----------4-----4---------4-----4----------------|

    E              
 stone moth.
e|---------------------------------------------------------------------------|
B|----------0----------------0--0--------------------------------------------|
G|-----4-------4------4------4--4p3------------------------------------------|
D|---------------------------------------------------------------------------|
A|---------------------------------------------------------------------------|
E|--0-----0--------0-----0---------------------------------------------------|

[Chorus]: Chords used - F# B E Abmin

    F#                                B
   I agree with your ideas but not your tactics, so look me in the eye and be
e|---------------------------------------------------------------------------|
B|------------0---------------0----------------0---------------0-------------|
G|-----3---------3------3--------3-------4--------4------4--------4----------|
D|---------------------------------------------------------------------------|
A|------------------------------------2-----2---------2-----2----------------|
E|--2-----2----------2-----2-------------------------------------------------|

    E
    practical.
e|---------------------------------------------------------------------------|
B|------------0---------------0----------------------------------------------|
G|-----4---------4------4--------4/3-----------------------------------------|
D|---------------------------------------------------------------------------|
A|---------------------------------------------------------------------------|
E|--0-----0----------0-----0-------------------------------------------------|

    F#                                E
    Practically there's nothing left for me to say of do....mmm it's
e|---------------------------------------------------------------------------|
B|------------0---------------0----------------0--------------0--------------|
G|-----3---------3------3--------3-------4--------4-----4--------4-----------|
D|---------------------------------------------------------------------------|
A|---------------------------------------------------------------------------|
E|--2-----2----------2-----2----------0-----0--------0-----0-----------------|

    Abmin                             E
    only up to you.
e|---------------------------------------------------------------------------|
B|----------0----------------5-4p2p0-----------0--------------0--------------|
G|-----4--------4------4-----------------4-------4------4-------4------------|
D|---------------------------------------------------------------------------|
A|---------------------------------------------------------------------------|
E|--4-----4---------4-----4-----------0-----0--------0-----0-----------------|

[Verse 2}- Switches timing and picking pattern in certain parts so listen to the recording to figure it out.
   Abmin                                  E
     A live ladybug                mmmmm                      trapped between my
e|---------------------------------------------------------------------------|
B|-----------0----------------0--------------------0--------0----------------|
G|-----4--------4-------4--------4-----------4-------4--------4------4-------|
D|---------------------------------------------------------------------------|
A|---------------------------------------------------------------------------|
E|--4-----4----------4-----4--------------0-----0--------0--------0-----0----|

    Abmin                     Abmin        
    toes.                      Keep it together man
e|---------------------------------------------------------------------------|
B|--------0-----------0---------0--0--------------0--------------------------|
G|-----4--------4---------------------4-----4--------4-----------------------|
D|---------------------------------------------------------------------------|
A|---------------------------------------------------------------------------|
E|--4--------4-----4---------4-----------4-----4-----------------------------|

    Abmin                             E
    Were all connected now           stay composed
e|---------------------------------------------------------------------------|
B|----------0---------------0------------------0---------------0-------------|
G|-----4--------4------4--------4--------4--------4------4--------4p3--------|
D|---------------------------------------------------------------------------|
A|---------------------------------------------------------------------------|
E|--4-----4---------4-----4-----------0-----0---------0-----0----------------|

[Chorus 2]: Chords used - F# B E Abmin

    F#                                B
   I agree with your ideas but not your tactics, so look me in the eye and be
e|---------------------------------------------------------------------------|
B|------------0---------------0----------------0---------------0-------------|
G|-----3---------3------3--------3-------4--------4------4--------4----------|
D|---------------------------------------------------------------------------|
A|------------------------------------2-----2---------2-----2----------------|
E|--2-----2----------2-----2-------------------------------------------------|

    E
    practical.
e|---------------------------------------------------------------------------|
B|------------0---------------0----------------------------------------------|
G|-----4---------4------4--------4/3-----------------------------------------|
D|---------------------------------------------------------------------------|
A|---------------------------------------------------------------------------|
E|--0-----0----------0-----0-------------------------------------------------|

    F#                                E
    Practically there's nothing left for me to say of do....mmm it's
e|---------------------------------------------------------------------------|
B|------------0---------------0----------------0--------------0--------------|
G|-----3---------3------3--------3-------4--------4-----4--------4-----------|
D|---------------------------------------------------------------------------|
A|---------------------------------------------------------------------------|
E|--2-----2----------2-----2----------0-----0--------0-----0-----------------|

    Abmin                             E
    only up to you.
e|---------------------------------------------------------------------------|
B|----------0----------------5-4p2p0-----------0--------------0--------------|
G|-----4--------4------4-----------------4-------4------4--------------------|
D|---------------------------------------------------------------------------|
A|---------------------------------------------------------------------------|
E|--4-----4---------4-----4-----------0-----0--------0-----0-----------------|

[Bridge]: Chords used - Abmin C#min F# B E (Listen for strum pattern)

    Abmin                           Abmin
         The current picture             The metronome
e|--4-4-----------------------------4-4--------------------------------------|
B|--4-4-----------------------------4-4--------------------------------------|
G|--4-4-----------------------------4-4--------------------------------------|
D|--6-6-----------------------------6-6--------------------------------------|
A|--6-6-----------------------------6-6--------------------------------------|
E|--4-4-----------------------------4-4--------------------------------------|

    C#min                            C#min
        I don't know who this is          not my home
e|--4-4------------------------------4-4-------------------------------------|
B|--5-5------------------------------5-5-------------------------------------|
G|--6-6------------------------------6-6-------------------------------------|
D|--6-6------------------------------6-6-------------------------------------|
A|--4-4------------------------------4-4-------------------------------------|
E|--x-x------------------------------x-x-------------------------------------|

    Abmin                           Abmin
e|--4-4-----------------------------4-4--------------------------------------|
B|--4-4-----------------------------4-4--------------------------------------|
G|--4-4-----------------------------4-4--------------------------------------|
D|--6-6-----------------------------6-6--------------------------------------|
A|--6-6-----------------------------6-6--------------------------------------|
E|--4-4-----------------------------4-4--------------------------------------|

    Abmin                           Abmin
        I thought that we were            fallin in love
e|--4-4-----------------------------4-4--------------------------------------|
B|--4-4-----------------------------4-4--------------------------------------|
G|--4-4-----------------------------4-4--------------------------------------|
D|--6-6-----------------------------6-6--------------------------------------|
A|--6-6-----------------------------6-6--------------------------------------|
E|--4-4-----------------------------4-4--------------------------------------|

    C#min                            C#min
             But we were not                only i was
e|--4-4------------------------------4-4-------------------------------------|
B|--5-5------------------------------5-5-------------------------------------|
G|--6-6------------------------------6-6-------------------------------------|
D|--6-6------------------------------6-6-------------------------------------|
A|--4-4------------------------------4-4-------------------------------------|
E|--x-x------------------------------x-x-------------------------------------|

    Abmin                           Abmin
e|--4-4-----------------------------4-4--------------------------------------|
B|--4-4-----------------------------4-4--------------------------------------|
G|--4-4-----------------------------4-4--------------------------------------|
D|--6-6-----------------------------6-6--------------------------------------|
A|--6-6-----------------------------6-6--------------------------------------|
E|--4-4-----------------------------4-4--------------------------------------|

[Chorus 3]: Chords used - F# B E Abmin (different variations not sure what theyre technically called)
**During this section just strum all the strings as well as listen for timing**

   F#                                         B
    I agree with your ideas not your tactics, so look me in the eyes and be
e|--0-----------------------------------------0-------------------------------|
B|--0-----------------------------------------0-------------------------------|
G|--11----------------------------------------8-------------------------------|
D|--11----------------------------------------9-------------------------------|
A|--9-----------------------------------------9-------------------------------|
E|--9-----------------------------------------7-------------------------------|

   E
   practical
**During this part i think he hammers a Ab note into the E chord with his pinky.**
e|--0-------------------------------------------------------------------------|
B|--0-------------------------------------------------------------------------|
G|--9-------------------------------------------------------------------------|
D|--9-------------------------------------------------------------------------|
A|--7--h--11------------------------------------------------------------------|
E|--0-------------------------------------------------------------------------|

    F#                                                      E
    Practically there's nothing left for me to say or do                  its-
e|--0-------------------------------------------------------0-----------------|
B|--0-------------------------------------------------------0-----------------|
G|--11------------------------------------------------------9-----------------|
D|--11------------------------------------------------------9-----------------|
A|--9-------------------------------------------------------7-----------------|
E|--9-------------------------------------------------------0-----------------|

    Abmin                             E
    only up to you.
e|----------------------------------------------------------------------------|
B|----------0----------------5-4p2p0-----------0----------7h9p7/5--7/5/2------|
G|-----4--------4------4-----------------4-------4----------------------------|
D|----------------------------------------------------------------------------|
A|----------------------------------------------------------------------------|
E|--4-----4---------4-----4-----------0-----0--------0------------------------|

    Abmin                                   E
e|---------------------------------------------------------------------------|
B|------------2p0--0--------------2p0--4-------------0---------------0-------|
G|-----4------4------------4------4------------4--------4------4--------4----|
D|---------------------------------------------------------------------------|
A|---------------------------------------------------------------------------|
E|--4-----4------------4------4-------------0-----0---------0-----0----------|


************************************

| x   Dead note
| g   Grace note
| (n) Ghost note
| h   Hammer-on
| p   Pull-off
| r   Release
| >   Accented note
| t   Tapping
| b   Bend
| br  Bend release
| pb  Pre-bend
| pbr Pre-bend release
| /   Slide up
| \   Slide down
| ~   Vibrato
| s   Slap
| P   Pop
| PM  Palm mute
| TR  Trill
| N   Tremolo

************************************
Suggest correction
Creating personal tab
Creating personal tab
You can edit any tab online and save it as your Personal.

You can edit, replace or remove any tab part or add personal notes – all changes will be seen only by you.

Personal tabs can be accessed anytime from any device, even offline.
Learn more »
comments
print report bad tab
1 comment total.
+1 reply
gracendechant 10 Oct 17, 2016 05:58 PM

Thank you thank you thank you so much for this tab.

guest
You may want to rate the tab now too:
select rating
Wanna post a correction for this tab? Suggest correction