Oops, an error
Loading. Please wait.

The Metronome ukulele

451 views 9 this week
no commentswrite comment
1 2 3 4 5
1 last vote to show rating
add to favorites
×
Save as Personal and add changes to this tab that will be seen only by you. Learn more ›
×
You can save this tab as Personal to edit and correct it or add notes. All changes will be seen only by you. Learn more »
launch autoscroll
font size
0
reset
transpose
0
reset
display chords
guitar tuner
edit
Autoscroll
slow
fast
+/-
esc
set tempo
stop
Author
Difficulty
About this tab version
Ukulele tab, a little easier than guitar. Was this info helpful? Yes No
Strumming Is this strumming pattern correct? Yes No
bridge 120 bpm
1
&
2
&
3
&
4
&
5
&
Listen
this is a ukulele tab for the metronome. i did this by ear, so i apologize if its
complete shit hahha

[INTRO]
A|---------2----------2-----------2--------------7-6-4-2-----------2------------4-2-6--------2---------2--|
E|--4---4-------4---4-------0---0---------0---0-----------4---4---------4---4---------0---0-----0---0-----|
C|--------------------------------------------------------------------------------------------------------|
G|----4------4----4------4----4--------4-----4---------------4--------4---4--------------4-----4--4-------|

[VERSE]
 the night my                                necklace fell off
A|-------2---------2-----------2-------------2------------2---------2------------2---|
E|-4--4-----4---4-------0---0------0----0----------4---4-------4---4------0----0-----|
C|-----------------------------------------------------------------------------------|
G|---4----4---4------4----4------4----4---------------4----4------4-----4-----4----4-|

    you,   fluttered through my       capillaries like a      stoned moth
A|-------2---------2-----------2------------2--------------2--------------2--1-|
E|-0--0-----4---4-------4---4------0----0--------0-----0--------4----4---------|
C|-----------------------------------------------------------------------------|
G|--4----4---4------4----4------4----4-------------4---------4----4------------|
repeat that pattern for the verses,

[CHORUS]
F#                                         B
  I agree with your ideas but not your tactics 
                               E
So look me in the eye and be practical. 
       F#                                        B     E
When practically there's nothing left for me to say or do, 
     G#m             E
It's  only up to you. 
     G#m              E
It's  only up to you.


[VERSE]
  a live ladybug  mmmm    trapped between my toes  keep it together man
A|--------2---------2-----------2-------------2------------2---------2------------2---|
E|-4---4-----4---4-------0---0------0----0----------4---4-------4---4------0----0-----|
C|------------------------------------------------------------------------------------|
G|---4-----4---4------4----4------4----4---------------4----4------4-----4-----4----4-|

      all connected now                      stay composed
A|-------2---------2-----------2------------2---------------2--1---|
E|-0--0-----4---4-------4---4------0----0--------0-----0-----------|
C|-----------------------------------------------------------------|
G|--4----4---4------4----4------4----4--------4----4---------------|

[CHORUS]
F#                                         B
  I agree with your ideas but not your tactics 
                               E
So look me in the eye and be practical. 
       F#                                        B     E
When practically there's nothing left for me to say or do, 
     G#m              E
It's  only up to you. 
     G#m              E
It's  only up to you.

[BRIDGE]
N.C
One chord = two quick downwards strums

G#m
The current picture,
G#m
the metronome:
C#m
I don't know what this is
C#m
but it's not my home.

G#m    G#m

G#m
I thought that we were
G#m
falling in love
C#m
but we weren't;
C#m
only I was.

[CHORUS]
F#                                         B
  I agree with your ideas but not your tactics
                               E
So look me in the eye and be practical.
       F#                                        B     E
When practically there's nothing left for me to say or do,
     G#m              E
It's  only up to you.
     G#m              E
It's  only up to you.


[OUTRO]
A|---------2----------2-----------2--------------2-1--|
E|--4---4-------4---4-------0---0---------0---0-------|
C|----------------------------------------------------|
G|----4------4----4------4----4--------4-----4--------|
Suggest correction
Creating personal tab
Creating personal tab
You can edit any tab online and save it as your Personal.

You can edit, replace or remove any tab part or add personal notes – all changes will be seen only by you.

Personal tabs can be accessed anytime from any device, even offline.
Learn more »
Give kudos to tab author, rate the tab!
1 2 3 4 5
comments
print report bad tab
guest
You may want to rate the tab now too:
select rating
Wanna post a correction for this tab? Suggest correction