Oops, an error
Loading. Please wait.

Then Again tab

727 views 33 this week
no commentswrite comment
1 2 3 4 5
3 more votes to show rating
add to favorites
×
Save as Personal and add changes to this tab that will be seen only by you. Learn more ›
×
You can save this tab as Personal to edit and correct it or add notes. All changes will be seen only by you. Learn more »
launch autoscroll
font size
0
reset
how to read this tab
guitar tuner
edit
Autoscroll
slow
fast
+/-
esc
set tempo
stop
Author
Difficulty
About this tab version
Full guitar tab with lead and rhythm parts. Was this info helpful? Yes No
Pinegrove - Then Again

Strum Pattern is long (accented) on 1 & 3, then short strum on even beats (swing time) 

[Verse]

e|--------------------|---------------------|--------------------|--------------------|--------------------|
B|--------------------|---------------------|--------------------|--------------------|--------------------|
G|--------------------|---------------------|--------------------|--------------------|--------------------|
D|-4/5--5----5----5---|-4/5--5----5----5----|--------------------|-5----5----5----5---|-5----5----5----5---|
A|-2/3--3----3----3---|-2/3--3----3----3----|-5----5----7----7---|-3----3----2/3--3---|-3----3----2/3--3---|
E|--------------------|---------------------|-3----3----5----5---|--------------------|--------------------|

e|--------------------|--------------------|--------------------|
B|--------------------|--------------------|--------------------|
G|--------------------|--------------------|--------------------|
D|-5----5----5----5---|-5----5----5----5---|-5----5----5----5---|
A|-5----5----2----2---|-3----3----2/3--3---|-2/3--3----2/3--3---| play 2x
E|-3----3-------------|--------------------|--------------------|



[Chorus]

e|--------------------|--------------------|---------------------|
B|--------------------|--------------------|---------------------|
G|--------------------|-----------5----5---|-5----5----5----5----|
D|-5----5----5----5---|-2----2----5----5---|-5----5----5----5----|
A|-5----5----2----2---|-2----2----3----3---|-3----3----3----3----|
E|-3----3-------------|-0----0----3----3---|-3----3----3----3----|

e|--------------------|--------------------|---------------------|
B|--------------------|--------------------|---------------------|
G|--------------------|-5----5----5----5---|-5--5--5--5--5--5----|
D|-5----5----2----2---|-5----5----5----5---|-5--5--5--5--5--5----|
A|-2----2----2----2---|-3----3----3----3---|-3--3--3--3--3--3----|
E|-----------0----0---|-3----3----3----3---|-3--3--3--3--3--3----|

e|--------------------|--------------------|---------------------|
B|--------------------|--------------------|---------------------|
G|--------------------|-5----5----5----5---|-5--5--5--5--5--5----|
D|-5----5----5----5---|-5----5----5----5---|-5--5--5--5--5--5----|
A|-5----5----2----2---|-3----3----3----3---|-3--3--3--3--3--3----|
E|-3----3-------------|-3----3----3----3---|-3--3--3--3--3--3----|

e|--------------------|--------------------|---------------------|-----------------|-----------------|
B|--------------------|--------------------|-----0-0-0--0--------|-1---1---1---1---|-1---1---1-------|
G|--------------------|-5----------------5-|-5-5------5----------|-2---2---2---2---|-2---2---2-------|
D|-5----5----2----2---|-5------------------|---------------------|-2---2---2---2---|-2---2---2-------|
A|-2----2----2----2---|-3------------------|---------------------|-0---0---0---0---|-0---0---0-------|
E|-----------0----0---|-3------------------|---------------------|-----------------|-----------------|


  rhythm
e|--------------------|--------------------|---------------------|
B|--------------------|--------------------|---------------------|
G|--------------------|-5----5----5----5---|-5----5----5--5--5---|
D|-5----5----7----7---|-5----5----5----5---|-5----5----5--5--5---| play 2x
A|-5----5----7----7---|-3----3----3----3---|-3----3----3--3--3---|
E|-3----3----5----5---|-3----3----3----3---|-3----3----3--3--3---|
 |
 | lead
e|------3-------------|------3---------3---|----/12---10-----------|
B|-0---------0--------|-0------------------|---------------12p10---|
G|----------------0---|-----------0--------|--------------------12-|
D|--------------------|--------------------|-----------------------|
A|--------------------|--------------------|-----------------------|
E|--------------------|--------------------|-----------------------|



[Verse 2 Riff 1]

   all PM
e|-------------------------|-------------------------|-------------------------|
B|-------------------------|-------------------------|-------------------------|
G|-------------------------|-------------------------|-------------------------|
D|-------------------------|-------------------------|-------------------------|
A|-------------------------|-------------------------|-------------------------|
E|-5--5--5--5--5--5--5--5--|-5--5--5--5--5--5--5--5--|-5--5--5--5--5--5--5--5--|

   
e|---------------------|---------------------|------------------------|
B|---------------------|---------------------|------------------------|
G|---------------------|---------------------|------------------------|
D|---------------------|---------------------|------------------------|  
A|-----------2----2----|-3----3---2/3----3---|-2/3----3---2/3----3----|
E|-3----3--------------|---------------------|------------------------|

play above 2x


[Verse 2 Riff 2]

   (1:05)                                    with muting
e|--------------------|--------------------|------------------------|------------------------|
B|--------------------|--------------------|------------------------|------------------------|
G|--------------------|--------------------|------------------------|------------------------|
D|-5----5----5----5---|-5----5----5----5---|-5--5--5--5--5--5--5--5-|-5--5--5--5--5--5--5--5-|
A|-5----5----2----2---|-3----3----3----3---|-3--3--3--3--3--3--3--3-|-3--3--3--3--3--3--3--3-|
E|-3----3-------------|--------------------|------------------------|------------------------|

e|------------------------|------------------------|
B|------------------------|------------------------|
G|------------------------|------------------------|
D|-5--5--5--5--5--5--5--5-|-5--5--5--5--5--5--5--5-|
A|-3--3--3--3--3--3--3--3-|-3--3--3--3--3--3--3--3-|
E|------------------------|------------------------|

e|--------------------|-----------------------|-------------------------|
B|--------------------|-----------------------|-------------------------|
G|--------------------|-----------------------|-------------------------|
D|-5----5----5----5---|-5----5----5--5--5--5--|-5--5--5--5--5--5--5--5--|
A|-5----5----2----2---|-3----3----3--3--3--3--|-3--3--3--3--3--3--3--3--|  play 2x
E|-3----3-------------|-----------------------|-------------------------|



[Verse 2 Lead]

   during riff 1 & 2 above, as 2nd part
e|----------------|----------------|------------------|------------------|----------------|----------------|
B|----------------|----------------|-------10b12r-8---|-8--------------8-|-----8-----8----|-8--10/12-10-8--|
G|----------------|----------------|----------------9-|---------7----7---|---7-----7----7-|----------------|
D|----------------|----------------|------------------|------------------|----------------|----------------|
A|----------------|----------------|------------------|------------------|----------------|----------------|
E|----------------|----------------|------------------|------------------|----------------|----------------|

e|----------------|----------------|------------------|------------------|----------------|-8p7--5---------|
B|----------------|------8-------8-|------8-10b12r-8--|-8----------------|------8------8--|--------7-------|
G|----------------|-5--7----5--7---|-5--7-------------|------------------|-5--7---5--7----|----------------|
D|----------------|----------------|------------------|------------------|----------------|----------------|
A|----------------|----------------|------------------|------------------|----------------|----------------|
E|----------------|----------------|------------------|------------------|----------------|----------------|

e|----------------|----------------|-12--10----8------|------------------|----------------|-8p7--5---------|
B|----------------|------8-------8-|------------------|-10------8------8-|------8-------8-|--------7-7-----|
G|----------------|------------7---|------------------|-----------5--7---|-5--7----5--7---|----------------|
D|----------------|----------------|------------------|------------------|----------------|----------------|
A|----------------|----------------|------------------|------------------|----------------|----------------|
E|----------------|----------------|------------------|------------------|----------------|----------------|

e|--------3p2-0---|-------0--------|------------------|---------3--------|--------3-------|-3-------3------|
B|----------------|-1-------3------|------------------|-----0-------0----|----3h5----5----|-----5-------0--|
G|----------------|----------------|------------------|-0----------------|----------------|----------------|
D|----------------|----------------|------------------|------------------|----------------|----------------|
A|----------------|----------------|------------------|------------------|----------------|----------------|
E|----------------|----------------|------------------|------------------|----------------|----------------|

e|-----------------|----------------|------------------|
B|--------------0--|-1-------3--/5--|------------------|
G|-2b4r-0---0------|-----0----------|------------------|
D|-----------------|----------------|------------------|
A|-----------------|----------------|------------------|
E|-----------------|----------------|------------------|



[Chorus 2]

  rhythm (1:47)
e|--------------------|--------------------|---------------------|
B|--------------------|--------------------|---------------------|
G|--------------------|-5----5----5----5---|-5----5----5--5--5---|
D|-5----5----7----7---|-5----5----5----5---|-5----5----5--5--5---| play 4x
A|-5----5----7----7---|-3----3----3----3---|-3----3----3--3--3---| similarly
E|-3----3----5----5---|-3----3----3----3---|-3----3----3--3--3---|
 |
 | lead
e|------3-------------|------3---------3---|----/12---10-----------|
B|-0---------0--------|-0------------------|---------------12p10---|
G|----------------0---|-----------0--------|--------------------12-| play 4x
D|--------------------|--------------------|-----------------------| 
A|--------------------|--------------------|-----------------------|
E|--------------------|--------------------|-----------------------|



e|--------------------|--------------------|---------------------|
B|--------------------|--------------------|---------------------|
G|--------------------|-----------5----5---|-5----5----5----5----|
D|-5----5----5----5---|-2----2----5----5---|-5----5----5----5----|
A|-5----5----2----2---|-2----2----3----3---|-3----3----3----3----|
E|-3----3-------------|-0----0----3----3---|-3----3----3----3----|

e|--------------------|--------------------|---------------------|
B|--------------------|--------------------|---------------------|
G|--------------------|-5----5----5----5---|-5--5--5--5--5--5----|
D|-5----5----2----2---|-5----5----5----5---|-5--5--5--5--5--5----|
A|-2----2----2----2---|-3----3----3----3---|-3--3--3--3--3--3----|
E|-----------0----0---|-3----3----3----3---|-3--3--3--3--3--3----|

e|--------------------|--------------------|---------------------|
B|--------------------|--------------------|---------------------|
G|--------------------|-5----5----5----5---|-5--5--5--5--5--5----|
D|-5----5----5----5---|-5----5----5----5---|-5--5--5--5--5--5----|
A|-5----5----2----2---|-3----3----3----3---|-3--3--3--3--3--3----|
E|-3----3-------------|-3----3----3----3---|-3--3--3--3--3--3----|

e|--------------------|--------------------|---------------------|-----------------|-----------------|
B|--------------------|--------------------|-----0-0-0--0--------|-1---1---1---1---|-1---1---1-------|
G|--------------------|-5----------------5-|-5-5------5----------|-2---2---2---2---|-2---2---2-------|
D|-5----5----2----2---|-5------------------|---------------------|-2---2---2---2---|-2---2---2-------|
A|-2----2----2----2---|-3------------------|---------------------|-0---0---0---0---|-0---0---0-------|
E|-----------0----0---|-3------------------|---------------------|-----------------|-----------------|



[Ending]
e|--------------------|-----------------|----------------|
B|--------------------|-----------------|----------------|
G|--------------------|-5---------------|----------------|
D|-5----5----7----7---|-5---------------|----------------|
A|-5----5----7----7---|-3---------------|----------------|
E|-3----3----5----5---|-3---------------|----------------|



************************************

| h   Hammer-on
| p   Pull-off
| r   Release
| b   Bend
| /   Slide up
| \   Slide down
| ~   Vibrato
| PM  Palm mute

************************************

            
            
Suggest correction
Creating personal tab
Creating personal tab
You can edit any tab online and save it as your Personal.

You can edit, replace or remove any tab part or add personal notes – all changes will be seen only by you.

Personal tabs can be accessed anytime from any device, even offline.
Learn more »
Give kudos to tab author, rate the tab!
1 2 3 4 5
comments
print report bad tab
guest
You may want to rate the tab now too:
select rating
Wanna post a correction for this tab? Suggest correction