Oops, an error
Loading. Please wait.

Visiting tab

538 views 15 this week
no commentswrite comment
1 2 3 4 5
2 more votes to show rating
add to favorites
×
Save as Personal and add changes to this tab that will be seen only by you. Learn more ›
×
You can save this tab as Personal to edit and correct it or add notes. All changes will be seen only by you. Learn more »
launch autoscroll
font size
0
reset
how to read this tab
guitar tuner
edit
Autoscroll
slow
fast
+/-
esc
set tempo
stop
Author
Difficulty
[Intro]
GUITAR 1
e|-------------------0----------------------------------0--------------------|
B|9-----7-----9-----7----------------9-----7-----9-----7---------------------|
G|----9-------------9--------------------8-------------8---------------------|
D|---------------------------------------------------------------------------|
A|---------------------------------------------------------------------------|
E|---------------------------------------------------------------------------|

GUITAR 2
e|---------------------------------------------------------------------------|
B|---------------------------------------------------------------------------|
G|---------------------------------------------------------------------------|
D|---------------------------------------x-x-x-x-x-x-x-x-x-x-x-x-------------|
A|---------------------------------------x-x-x-x-x-x-x-x-x-x-x-x-------------|
E|---------------------------------------x-x-x-x-x-x-x-x-x-x-x-x-------------|

GUITAR 1
e|-------------------0----------------------------------0--------------------|
B|9-----7-----9-----7----------------9-----7-----9-----7---------------------|
G|----9-------------9--------------------8-------------8---------------------|
D|---------------------------------------------------------------------------|
A|---------------------------------------------------------------------------|
E|---------------------------------------------------------------------------| x2

GUITAR 2
e|---------------------------------------------------------------------------|
B|---------------------------------------------------------------------------|
G|6-6-6-6-6-6-6-6-6-6-6-6-6-6-6-6-4-4-4-4-4-4-4-4-4-4-4-4-4-4-4-4------------|
D|6-6-6-6-6-6-6-6-6-6-6-6-6-6-6-6-4-4-4-4-4-4-4-4-4-4-4-4-4-4-4-4------------|
A|4-4-4-4-4-4-4-4-4-4-4-4-4-4-4-4-2-2-2-2-2-2-2-2-2-2-2-2-2-2-2-2------------|
E|---------------------------------------------------------------------------|(Palm Muted) x2

[Verse]
GUITAR 1
e|-------------------0----------------------------------0--------------------|
B|9-----7-----9-----7----------------9-----7-----9-----7---------------------|
G|----9-------------9--------------------8-------------8---------------------|
D|---------------------------------------------------------------------------|
A|---------------------------------------------------------------------------|
E|---------------------------------------------------------------------------| x2

GUITAR 2
e|---------------------------------------------------------------------------|
B|---------------------------------------------------------------------------|
G|6-6-6-6-6-6-6-6-6-6-6-6-6-6-6-6-1-1-1-1-1-1-1-1-1-1-1-1-1-1-1-1------------|
D|6-6-6-6-6-6-6-6-6-6-6-6-6-6-6-6-2-2-2-2-2-2-2-2-2-2-2-2-2-2-2-2------------|
A|4-4-4-4-4-4-4-4-4-4-4-4-4-4-4-4-2-2-2-2-2-2-2-2-2-2-2-2-2-2-2-2------------|
E|---------------------------------------------------------------------------|x2

GUITAR 2
e|---------------------------------------------------------------------------|
B|---------------------------------------------------------------------------|
G|--------------------------------4-4-4-4-4-4-4-4-4-4-4-4-4-4-4-4------------|
D|2-2-2-2-2-2-2-2-2-2-2-2-2-2-2-2-4-4-4-4-4-4-4-4-4-4-4-4-4-4-4-4------------|
A|2-2-2-2-2-2-2-2-2-2-2-2-2-2-2-2-2-2-2-2-2-2-2-2-2-2-2-2-2-2-2-2------------|
E|0-0-0-0-0-0-0-0-0-0-0-0-0-0-0-0--------------------------------------------|

GUITAR 2
e|---------------------------------------------------------------------------|
B|---------------------------------------------------------------------------|
G|---------------------------------------------------------------------------|
D|2-2-2-2-2-2-2-2-2-2-2-2-2-2-2-2-2-2-2-2-2-2-2-2-2-2-2-2-2-2-2-2------------|
A|2-2-2-2-2-2-2-2-2-2-2-2-2-2-2-2-2-2-2-2-2-2-2-2-2-2-2-2-2-2-2-2------------|
E|0-0-0-0-0-0-0-0-0-0-0-0-0-0-0-0-0-0-0-0-0-0-0-0-0-0-0-0-0-0-0-0------------|

[Chorus]
GUITAR 1
e|-------------------0----------------------------------0--------------------|
B|9-----7-----9-----7----------------9-----7-----9-----7---------------------|
G|----9-------------9--------------------8-------------8---------------------|
D|---------------------------------------------------------------------------|
A|---------------------------------------------------------------------------|
E|---------------------------------------------------------------------------| 

GUITAR 2
e|---------------------------------------------------------------------------|
B|---------------------------------------------------------------------------|
G|---------------------------------------------------------------------------|
D|6--6-x-x-x-x-x-x-6--6-x-x-x-x-x-x-4--4-x-x-x-x-x-x-4--4-x-x-x-x-x-x--------|
A|4--4-x-x-x-x-x-x-4--4-x-x-x-x-x-x-2--2-x-x-x-x-x-x-2--2-x-x-x-x-x-x--------|
E|---------------------------------------------------------------------------|

GUITAR 1
e|-------------------0----------------------------------0--------------------|
B|9-----7-----9-----7----------------9-----7-----9-----7---------------------|
G|----9-------------9--------------------8-------------8---------------------|
D|---------------------------------------------------------------------------|
A|---------------------------------------------------------------------------|
E|---------------------------------------------------------------------------| 

GUITAR 2
e|---------------------------------------------------------------------------|
B|---------------------------------------------------------------------------|
G|---------------------------------------------------------------------------|
D|2--2-x-x-x-x-x-x-2--2-x-x-x-x-x-x------------------------------------------|
A|0--0-x-x-x-x-x-x-0--0-x-x-x-x-x-x-5--5-x-x-x-x-x-x-5--5-x-x-x-x-x-x--------|
E|----------------------------------3--3-x-x-x-x-x-x-3--3-x-x-x-x-x-x--------|

[Verse]
GUITAR 1
e|-------------------0----------------------------------0--------------------|
B|9-----7-----9-----7----------------9-----7-----9-----7---------------------|
G|----9-------------9--------------------8-------------8---------------------|
D|---------------------------------------------------------------------------|
A|---------------------------------------------------------------------------|
E|---------------------------------------------------------------------------| x2

GUITAR 2
e|---------------------------------------------------------------------------|
B|---------------------------------------------------------------------------|
G|6-6-6-6-6-6-6-6-6-6-6-6-6-6-6-6-1-1-1-1-1-1-1-1-1-1-1-1-1-1-1-1------------|
D|6-6-6-6-6-6-6-6-6-6-6-6-6-6-6-6-2-2-2-2-2-2-2-2-2-2-2-2-2-2-2-2------------|
A|4-4-4-4-4-4-4-4-4-4-4-4-4-4-4-4-2-2-2-2-2-2-2-2-2-2-2-2-2-2-2-2------------|
E|---------------------------------------------------------------------------|x2

GUITAR 2
e|---------------------------------------------------------------------------|
B|---------------------------------------------------------------------------|
G|--------------------------------4-4-4-4-4-4-4-4-4-4-4-4-4-4-4-4------------|
D|2-2-2-2-2-2-2-2-2-2-2-2-2-2-2-2-4-4-4-4-4-4-4-4-4-4-4-4-4-4-4-4------------|
A|2-2-2-2-2-2-2-2-2-2-2-2-2-2-2-2-2-2-2-2-2-2-2-2-2-2-2-2-2-2-2-2------------|
E|0-0-0-0-0-0-0-0-0-0-0-0-0-0-0-0--------------------------------------------|

GUITAR 2
e|---------------------------------------------------------------------------|
B|---------------------------------------------------------------------------|
G|---------------------------------------------------------------------------|
D|2-2-2-2-2-2-2-2-2-2-2-2-2-2-2-2-2-2-2-2-2-2-2-2-2-2-2-2-2-2-2-2------------|
A|2-2-2-2-2-2-2-2-2-2-2-2-2-2-2-2-2-2-2-2-2-2-2-2-2-2-2-2-2-2-2-2------------|
E|0-0-0-0-0-0-0-0-0-0-0-0-0-0-0-0-0-0-0-0-0-0-0-0-0-0-0-0-0-0-0-0------------|

[Banjo part]
e|---------------------------------------------------------------------------|
B|--------5~------------------------------4~---------------------------------|
G|2---4---------------------------1---3--------------------------------------|
D|---------------------------------------------------------------------------|
A|---------------------------------------------------------------------------|
E|---------------------------------------------------------------------------| x4

[Verse]
GUITAR 1
e|-------------------0----------------------------------0--------------------|
B|9-----7-----9-----7----------------9-----7-----9-----7---------------------|
G|----9-------------9--------------------8-------------8---------------------|
D|---------------------------------------------------------------------------|
A|---------------------------------------------------------------------------|
E|---------------------------------------------------------------------------| x2

GUITAR 2
e|---------------------------------------------------------------------------|
B|---------------------------------------------------------------------------|
G|6-6-6-6-6-6-6-6-6-6-6-6-6-6-6-6-1-1-1-1-1-1-1-1-1-1-1-1-1-1-1-1------------|
D|6-6-6-6-6-6-6-6-6-6-6-6-6-6-6-6-2-2-2-2-2-2-2-2-2-2-2-2-2-2-2-2------------|
A|4-4-4-4-4-4-4-4-4-4-4-4-4-4-4-4-2-2-2-2-2-2-2-2-2-2-2-2-2-2-2-2------------|
E|---------------------------------------------------------------------------|x2

GUITAR 2
e|---------------------------------------------------------------------------|
B|---------------------------------------------------------------------------|
G|--------------------------------4-4-4-4-4-4-4-4-4-4-4-4-4-4-4-4------------|
D|2-2-2-2-2-2-2-2-2-2-2-2-2-2-2-2-4-4-4-4-4-4-4-4-4-4-4-4-4-4-4-4------------|
A|2-2-2-2-2-2-2-2-2-2-2-2-2-2-2-2-2-2-2-2-2-2-2-2-2-2-2-2-2-2-2-2------------|
E|0-0-0-0-0-0-0-0-0-0-0-0-0-0-0-0--------------------------------------------|

GUITAR 2
e|---------------------------------------------------------------------------|
B|---------------------------------------------------------------------------|
G|---------------------------------------------------------------------------|
D|2-2-2-2-2-2-2-2-2-2-2-2-2-2-2-2-2-2-2-2-2-2-2-2-2-2-2-2-2-2-2-2------------|
A|2-2-2-2-2-2-2-2-2-2-2-2-2-2-2-2-2-2-2-2-2-2-2-2-2-2-2-2-2-2-2-2------------|
E|0-0-0-0-0-0-0-0-0-0-0-0-0-0-0-0-0-0-0-0-0-0-0-0-0-0-0-0-0-0-0-0------------|


************************************

| x   Dead note
| ~   Let ring

************************************
Suggest correction
Creating personal tab
Creating personal tab
You can edit any tab online and save it as your Personal.

You can edit, replace or remove any tab part or add personal notes – all changes will be seen only by you.

Personal tabs can be accessed anytime from any device, even offline.
Learn more »
Give kudos to tab author, rate the tab!
1 2 3 4 5
comments
print report bad tab
guest
You may want to rate the tab now too:
select rating
Wanna post a correction for this tab? Suggest correction