Oops, an error
Loading. Please wait.

Life During Wartime bass

version 1
version 1

Whole song

Interactive

3,698 views 6 this week
2 commentsread comments
1 2 3 4 5
1 last vote to show rating
add to favorites
×
Save as Personal and add changes to this tab that will be seen only by you. Learn more ›
×
You can save this tab as Personal to edit and correct it or add notes. All changes will be seen only by you. Learn more »
launch autoscroll
font size
0
reset
guitar tuner
edit
Autoscroll
slow
fast
+/-
esc
set tempo
stop
Difficulty
I noticed there wasn't a tab for this song so i thought what the hell and made one myself.
It probably isn't right but it does go well with the song so enjoy

Intro
G----------------------------------------------------------|
D----------------------------------------------------------|
A-------------4-2-55-55555555-77-------------4-2-55-5-3-5-3|
E-5-5-5555555--------------------5-5-5555555---------------|

Verse
G----------------------------------------------------------------------|
D----------------------------------------------------------------------|
A----------55555555-7777777777777777----------55555555-7777777777777777|
E-55555555---------------------------55555555--------------------------|

Chorus
G-----------------------------------------------------------------|
D-----------------------------------------------------------------|
A-----------------------------------------5-55-55-7-7-777777777777|
E-5-55-55-2-22-22-5-55-55-2-22-22-5-55-55-------------------------|

G--------------------------------------------------------------|
D--------------------------------------------------------------|
A-------------4-2-55-55555555-77-------------4-2-55-55555555555|
E-5-5-5555555--------------------5-5-5555555-------------------|

Verse 2
G----------------------------------------------------------------------|
D----------------------------------------------------------------------|
A----------55555555-7777777777777777----------55555555-7777777777777777|
E-55555555---------------------------55555555--------------------------|

Chorus
G-----------------------------------------------------------------|
D-----------------------------------------------------------------|
A-----------------------------------------5-55-55-7-7-777777777777|
E-5-55-55-2-22-22-5-55-55-2-22-22-5-55-55-------------------------|

Bridge (x2)
G--------------------------------------------------------------------------|
D--------------------------------------------------------------------------|
A-5-5-5---------5-3-5---------5-5-5---------5-5555555555555-7-7777777777777|
E-------5-5-3-5-------5-5-3-5-------5-5-3-5--------------------------------|

Chorus
G-----------------------------------------------------------------|
D-----------------------------------------------------------------|
A-----------------------------------------5-55-55-7-7-777777777777|
E-5-55-55-2-22-22-5-55-55-2-22-22-5-55-55-------------------------|

G-----------------------------------------------------------------|
D-----------------------------------------------------------------|
A-777777777777777-------------------------------------------------|
E-----------------5(let ring)------(long pause)--------5/---------|

listen to the song to get the timing right and stuff.
thanks for reading.











            
            
Suggest correction
Creating personal tab
Creating personal tab
You can edit any tab online and save it as your Personal.

You can edit, replace or remove any tab part or add personal notes – all changes will be seen only by you.

Personal tabs can be accessed anytime from any device, even offline.
Learn more »
Give kudos to tab author, rate the tab!
1 2 3 4 5
comments
print report bad tab
2 comments total.
0 reply
DrSeemann 52 Jul 06, 2014 07:58 AM

Lack of accuracy.

0 reply
DrSeemann 52 Aug 28, 2014 03:53 PM

Lack of accuracy.

guest
Wanna post a correction for this tab? Suggest correction