Oops, an error
Loading. Please wait.

She Knows How To Stretch It Tab

2,536 views 6 this week
1 commentread comment
1 2 3 4 5
please rate
add to favorites
launch autoscroll
font size
0
reset
how to read this tab
guitar tuner
Autoscroll
slow
fast
+/-
esc
set tempo
stop
Help us to improve Ultimate-Guitar.com Take our survey!
×
Author
                                    She Know How To Stretch It      


                                                                                   Pink Anderson
Here's the link to the YouTube video: http://www.youtube.com/watch?v=mXdkUahBoSI. 
The parenthetical notes are not played on the guitar but were required in order 
to place lyrics on those beats. Pink is tuned down a full step.

Regards to all y'all pickers - J. Robson



                   Know  a   gal      name's             Liz  a      Jane        
                   She   can stretcha dol       lar      She  makeit last        
                   nice      lookin'  gal,      she's    not  so     big.  She   
     Q     Q       E     E   Q        E      E  Q        Q    Q      Q     Q     
D||-------------|-------------------------------------|-------------------------|
A||-------------|-------(2)--2--------1s--------2-----|--2----1s-----2----------|
F||-------------|------------2---------------2--------|--2----1s-----2----------|
C||-------------|------------2--------1s--------2-----|--2----1s-----2----------|
G||-------------|--0------------------0---------------|--0----------------------|
D||--2s----4----|-------------------------------------|-------------------/4----|

  She   can  stretch dol   lar from    Texas  to      Maine  She   
  I     couldbe      frown ing         She'll make it pass         
  goes       bare    foot  ed  and     wears  a       wig    she   
  E     E    Q       E     E   Q       Q      E    E  Q      Q     
------------------------------------|-----------------------------|
-------(2)---2-------1s--------2----|--2------1s------2-----------|
-------------2-------------2--------|--2-----------2--------------|
-------------2-------1s--------2----|--2------1s------2-----/2----|
--0------------------0--------------|--0------0-------------------|
------------------------------------|-----------------------------|

  knows how  to  stretch it.                            She     knows how  to  stretch it       
  knows                                                 She     knows                           
  Q     E    E   E       E   Q       E  E  E   E  Q     Q       Q     E    E   E       E  Q     
--------2--------0h------2---2----|--2-----0h--2--2----------|---------------------------------|
--------1---(1)--0-------1---1----|-----1--0---1--1----------|--------2--------1s---------2----|
--------2--------0h------2---2----|--2-----0h--2--2----------|--------2---(2)----------2-------|
--------0-------------------------|--0-----------------------|--------2--------1s---------2----|
----------------------------------|--------------------------|--0--------------0---------------|
--2-------------------------------|--------------------/4----|---------------------------------|

                   She       knows how  to  stretch    it      knows    how to make it    
                   She       knows how  to  stretch    it.     knows    how to make it    
  Q    E   E  Q    E   E     Q     E    E   E       E  Q       E     E  E   E  Q    Q     
--------------------------|--------0------------------------|--0-------------------------|
--2----1s-----2-----------|------------(0)----------3-------|--------1-------------------|
--2--------2--------------|---------------------------------|-----------2p--0------------|
--2----1s-----2-----------|--------2-------------------2----|-----------0------2----0----|
--0----0------------------|---------------------------------|----------------------------|
-------------------2s--1--|--0--------------0---------------|--2---------------2----0----|


  last                                                      
  last                                                      
             |--3--|  |---3--|                              
  Q     Q    E  E  E  E   E  E     Q    E   E  E  E  Q      
-------------5--4---------------|--------------5--0-------||
--2s----4----------0------------|-------1s--2-------------||
--------------------------------|-------------------------||
--2s----4-------------1p--0-----|-------1s--2-------------||
-----------------------------4--|--0-----------0----------||
--------------------------------|--------------------4----||




Suggest correction
Give kudos to tab author, rate the tab!
1 2 3 4 5
comments
print report bad tab
1 comment total.
0 reply
JRobson 838 wrote on December 19 2010, 01:33 pm

Fellow pickers,
I have re-worked this arrangement so it's easier to play. If you'd like a pdf copy contact me at J@PeaceLoveandGuitars.com

Q Q Q E E Q Q E E Q Q Q
D||-------------|------------------------|-------------------------|
A||-------------|-------2-----1s----2----|--2-----1s----2----------|
F||-------------|----------1-------------|-----1--1s----2----------|
C||-------------|-------2-----1s----2----|--------1s----2----------|
G||-------------|--0----------0----------|--0----------------------|
D||--2s----4----|------------------------|-------------------/4----|

Q E E Q Q E E Q Q Q Q E E E E Q
------------------------|------------------------|-------2-----0h--2-------|
-------2-----1s----2----|--2-----1s----2---------|----------1------1-------|
----------1-------------|-----1--1s----2---------|-----------------2-------|
-------2-----1s----2----|--------1s----2----2----|-------0------------0----|
--0----------0----------|--0---------------------|-------------------------|
------------------------|------------------------|--2----------2-----------|

E E E E Q Q Q E E Q Q E E Q Q Q
--2-----0h--2-------------|------------------------|------------------------|
-----1------1-------------|-------2-----1s----2----|--2-----1s----2---------|
------------2-------------|----------1-------------|-----1--1s----2---------|
--------0-----------------|-------2-----1s----2----|--------1s----2----2----|
--------------------------|--0----------0----------|--0---------------------|
--2------------2s----4----|------------------------|------------------------|

Q Q E E Q E E E E Q Q E E S S E S S E Q
-------0---------------|--0----------------------|---------5-4----------------|
---------------3-------|-----1-------------------|--2s--4------0--------------|
-----------------------|--------2p--0------------|----------------1-0---------|
-------2----------2----|---------------2----0----|--2s--4---------------------|
-----------------------|-------------------------|--------------------3-------|
--0---------0----------|--2----------------------|-----------------------4----|

Q E E E E Q
--------------5--0-------||
-------1s--2-------------||
-------------------------||
-------1s--2-------------||
--0-----------0----------||
--------------------4----||

guest
You may want to rate the tab now too:
select rating
Please do not post tabs as comments. Select "correction" instead!