Oops, an error
Loading. Please wait.

Another Brick In The Wall Part 1 Bass Tab

version 1
version 1

Whole song

Interactive

55,429 views 51 this week
no commentswrite comment
1 2 3 4 5
x 9
add to favorites
launch autoscroll
font size
0
reset
guitar tuner
Autoscroll
slow
fast
+/-
esc
set tempo
stop
Help us to improve Ultimate-Guitar.com Take our survey!
×
Author
Pink Floyd - 'Another brick in the wall Pt.1'
Album - 'The Wall'
Tabbed by jjhand
Normal tuning

Verse
  (0:18)     play 6x (each note rings for 8 beats)
G|-------|  -------|-------|
D|-------|  -------|-------|
A|-----3-|  -5-----|--(5)--|
E|-3/5---|  -------|-------|

Heavy guitar comes in:
  (0:57)
G|------------|--------|--------|--------|--------|--------|
D|------------|--------|--------|--------|--------|--------|
A|------------|--------|--------|--------|-5------|-(5)----|
E|--1/3-------|-(3)----|-3------|-(3)----|--------|--------|

Play 2x
G|----------|---------|--------|--------|
D|----------|---------|--------|--------|
A|----------|--3------|-5------|-(5)----|
E|--1-------|---------|--------|--------|

Outro Riff:
(1:22) Play 2x
G|----------|---------|    |-----------|-----------|
D|----------|---------|    |-----------|-----------|
A|-3-5------|-(5)-----|    |-3-5---3-5-|-3-5---3-5-|
E|----------|---------|    |-----------|-----------|

Play 4x
G|------------|   ------------|-----------|---------------|-------|
D|------------|   ------------|-------7---|---------------|-------|
A|-0-5---3-5--|   --0-5-------|-0-5-----5-|--0-5---5-5----|-3-5---|
E|------------|   ------------|-----------|---------------|-------|


Outro Riff repeats (2:00):
G|-----|-------------|-------------|--------------|-------------|------------|
D|-----|-------------|-----7-------|---7----------|-----7-------|----7-------|
A|-0-3-|-5---3-5---3-|-5-----5---3-|-5---0-3-5--3-|-5-----5---3-|-5----0--3--|
E|-----|-------------|-------------|--------------|-------------|------------|

Repeat these 16 bars until fade
G|-------------|-------------|-------------|------------| each 4th bar is a
D|-----7-------|-----7-------|-------------|----7-------| different rhythm
A|-5-----5---3-|-5-----5---3-|-5---3-5---3-|-5----0--3--|
E|-------------|-------------|-------------|------------|

G|-------------|-------------|-------------|------------|
D|-----------7-|-------------|-------------|----7-------|
A|-5---3-5-----|-5---3-5---3-|-5---3-5---3-|-5----0--3--|
E|-------------|-------------|-------------|------------|

G|-------------|-------------|-------------|------------|
D|-------------|-----------7-|-------------|----7-------|
A|-5---3-5---3-|-5---3-5-----|-5---3-5---3-|-5----0--3--|
E|-------------|-------------|-------------|------------|

G|-------------|-------------|-------------|------------|
D|-------------|-------------|-------------|----7-------|
A|-5---3-5---3-|-5---3-5---3-|-5---3-5---3-|-5----0--3--|
E|-------------|-------------|-------------|------------|

The final bars just exchange the C (3rd fret) and A (7th fret) in the 
first three bars of this rhythm.  

key:
/ or \ - slides
()     - Ringing note 

Suggest correction
comments
print report bad tab
guest
You may want to rate the tab now too:
select rating
Wanna post a correction for this tab? Suggest correction