Oops, an error
Loading. Please wait.

Another Brick In The Wall Part 2 Tab

version 2
version 2

Whole song

Interactive

22,708 views 69 this week
2 commentsread comments
1 2 3 4 5
x 12
add to favorites
launch autoscroll
font size
0
reset
how to read this tab
guitar tuner
Autoscroll
slow
fast
+/-
esc
set tempo
stop
Help us to improve Ultimate-Guitar.com Take our survey!
×
Author
Another Brick in the Wall Part 2 Solo
Pink Floyd
The Wall

Please leave feedback or rating!



e|----------------------10-----------------------------------------------------------------|
B|---13p10----10-----------13b15~-----10-10---10-----13/15-15b17rb15-13~-------------------|
G|---------12----12b14----------------10-10---10-------------------------------------------|
D|-----------------------------------------------------------------------------------------|
A|-----------------------------------------------------------------------------------------|
E|-----------------------------------------------------------------------------------------|

e|-----------------------------------------------------------------------------------------|
B|---13p10----------------------------8----10---10----10--10----10--10----10--12-10b11-----|
G|---------12-12b14rb13---10p9-7h9------7~-10---10----10--10----10--10----10--12-10b11-----|
D|---------------------------------10--------------12--------12--------12------------------|
A|-----------------------------------------------------------------------------------------|
E|-----------------------------------------------------------------------------------------|

e|-----------------------------------------------------------------------------------------|
B|---------18b20-18-18-----13b15rb14b16___b17rb15~-----------------------------------------|
G|-------x---------------------------------------------------------------------------------|
D|-----x-----------------------------------------------------------------------------------|
A|---x-------------------------------------------------------------------------------------|
E|-----------------------------------------------------------------------------------------|

e|------------10---------------------------------------------------------------------------|
B|---------10----13p10---------------------------------------------------------------------|
G|---12b14-------------12b13rb12-10--12p10-------------------------------------------------|
D|-----------------------------------------12--15p12/10--12/10-----------------------------|
A|-------------------------------------------------------12/10-x-x--12p10-----10p8---------|
E|------------------------------------------------------------------------13-------10p8h10-|

e|-----------------------------------------------------------------------------------------|
B|-----------------------------------------------------------------------------------------|
G|----------------------------------------------------------------10b11--------------------|
D|------------------3/10-10-12-12h15p14p12--12--------10-12-12p10--------------------------|
A|---------------------------------------------15-12---------------------------------------|
E|---8h10p8-10\----------------------------------------------------------------------------|

e|---------------------------------------15b17~---13p10--------13----15b17~~17rb15---------|
B|---13b15__rb14--13b15rb14b17_rb13~~~-x------------------9/15----15---------------15------|
G|-----------------------------------------------------------------------------------------|
D|-----------------------------------------------------------------------------------------|
A|-----------------------------------------------------------------------------------------|
E|-----------------------------------------------------------------------------------------|

e|---18b20-20--20b22~-20p17--20p17---------------------------------------------------------|
B|-----------------------------------------------------------------------------------------|
G|-----------------------------------10-10-10----------------------------------------------|
D|--------------------------------------------12~------------------------------------------|
A|-----------------------------------------------------------------------------------------|
E|-----------------------------------------------------------------------------------------|

e|-----------------------------------------------------------------------------------------|
B|-----------------------------------------------------------------------------------------|
G|-------10/17-17-x-15--12--12\10\---x-x-12*-x-x-------------------------------------------|
D|---x-x-10/17-17-x-15--12--12\10\---------------12-x--------------------------------------|
A|------------------------------------------------------x-x-10-----------------------------|
E|-------------------------------------------------------------13p10-13-10~----------------|
Suggest correction
comments
print report bad tab
2 comments total.
0 reply
hadynabil 31 Jun 28, 2013 01:18 PM

Pretty kick ass thanks

0 reply
TheFloyd79 10 Jul 29, 2013 04:45 AM

Great tab. Ending needs improvement but still a great job.

guest
You may want to rate the tab now too:
select rating
Wanna post a correction for this tab? Suggest correction