Oops, an error
Loading. Please wait.

Another Brick In The Wall Part 2 Tab

version 1
version 1

Whole song

Interactive

513,128 views 1,566 this week
20 commentsread comments
1 2 3 4 5
accurate
x 80
add to favorites
launch autoscroll
font size
0
reset
how to read this tab
guitar tuner
Tab Pro tools
  • play this tab
  • loop segment
  • change instrument
  • show fretboard
  • metronome
×
Best way to learn
"Another Brick In The Wall Part 2"
Autoscroll
slow
fast
+/-
esc
set tempo
stop
ANOTHER BRICK IN THE WALL II
Pink Floyd
(Waters)


[Verse]

E|------------------------------5------5--5----x----5--5----5--5------|
B|------------------------------5p6----6--6----x----6--6----6--6------|
G|------------------------------5-7----7--7----x----7--7----7--7------|x2
D|--0--2--3--2----0--2--3--2----5-7----7--7----x----7--7----7--7------|
A|------------------------------5------5--5----x----5--5----5--5------|
E|------------------------------5------5--5----x----5--5----5--5------|

E|--5------5--5----x----5--5----5--5----------------------------------|
B|--5p6----6--6----x----6--6----6--6----------------------------------|
G|--5-7----7--7----x----7--7----7--7----------------------------------|
D|--5-7----7--7----x----7--7----7--7----0--2--3--2----0--2h3----------|
A|--5------5--5----x----5--5----5--5----------------------------------|
E|--5------5--5----x----5--5----5--5----------------------------------|

E|------------------------------------------------------5------5--5----|
B|------------------------------------------------------5p6----6--6----|
G|------------------------------------------------------5-7----7--7----|
D|------------------------------------------------------5-7----7--7----|
A|------------------------------------------------------5------5--5----|
E|------------------------------------------------------5------5--5----|

E|--x----5----5--------5------5--5----x----5----5----------------------|
B|--x----6----6--------5p6----6--6----x----6----6----------------------|
G|--x----7----7--------5-7----7--7----x----7----7----------------------|
D|--x----7----7--------5-7----7--7----x----7----7----------------------|
A|--x----5----5--------5------5--5----x----5----5----------------------|
E|--x----5----5--------5------5--5----x----5----5----------------------|


[Pre-Chorus]

E|--------3------x--3--x--3----3--3--3--3--3----------3------x--3--x--|
B|--------3------x--3--x--3----3--3--3--3--3----------3------x--3--x--|
G|--------4------x--4--x--4----4--4--4--4--4----------4------x--4--x--|
D|--------5------x--5--x--5----5--5--5--5--5----------5------x--5--x--|
A|--------5------x--5--x--5----5--5--5--5--5----------5------x--5--x--|
E|--------3------x--3--x--3----3--3--3--3--3----------3------x--3--x--|


E|--3----3--3--3--3--3------------------5------5--5------10----9----10--|
B|--3----3--3--3--3--3------------------5p6----6--6------10----9----10--|
G|--4----4--4--4--4--4------------------5-7----7--7---------------------|
D|--5----5--5--5--5--5------------------5-7----7--7---------------------|
A|--5----5--5--5--5--5------------------5------5--5---------------------|
E|--3----3--3--3--3--3------------------5------5--5---------------------|


[Chorus]

E|----10----9--9----7--7--7----5--------------------------------1------|
B|----10----9--9----8--8--8----6--------------------------------1------|
G|--------------------------------------------------------------2------|
D|--------------------------------------------------------------3------|
A|--------------------------------------------------------------3------|
E|--------------------------------------------------------------1------|

E|--1------1------1------3------3------3------3------------5------5--5--|
B|--1------1------1------5------5------5------5------------5p6----6--6--|
G|--2------2------2------5------5------5------5------------5-7----7--7--|
D|--3------3------3------5------5------5------5------------5-7----7--7--|
A|--3------3------3------3------3------3------3------------5------5--5--|
E|--1------1------1------3------3------3------3------------5------5--5--|

E|----x----5----5----------5------5--5----x----5----5------------1------|
B|----x----6----6----------5p6----6--6----x----6----6------------1------|
G|----x----7----7----------5-7----7--7----x----7----7------------2------|
D|----x----7----7----------5-7----7--7----x----7----7------------3------|
A|----x----5----5----------5------5--5----x----5----5------------3------|
E|----x----5----5----------5------5--5----x----5----5------------1------|

E|--1------1------1------3------3------3------3----------5------5--5--|
B|--1------1------1------5------5------5------5----------5p6----6--6--|
G|--2------2------2------5------5------5------5----------5-7----7--7--|
D|--3------3------3------5------5------5------5----------5-7----7--7--|
A|--3------3------3------3------3------3------3----------5------5--5--|
E|--1------1------1------3------3------3------3----------5------5--5--|

repeat whole thing again
before solo :

E|----x----5--5----------5------5--5----x----5----5-----------------------|
B|----x----6--6----------5p6----6--6----x----6----6------------13p10------|
G|----x----7--7----------5-7----7--7----x----7----7-------------------12--|
D|----x----7--7----------5-7----7--7----x----7----7-----------------------|
A|----x----5--5----------5------5--5----x----5----5-----------------------|
E|----x----5--5----------5------5--5----x----5----5-----------------------|

E|------------------------------10--------------------------------------|
B|--10--------------------------10--10----10------------13b15----r--13--|
G|------12b14----13--13b15------10--10----10----------------------------|
D|----------------------------------------------------------------------|
A|----------------------------------------------------------------------|
E|----------------------------------------------------------------------|

E|---------------------------------------------------------------------|
B|----13------12p10----------------------------------------------------|
G|---------------------12----12b14----------109----------9-------------|
D|--------------------------------------------------12-------10/12-----|
A|---------------------------------------------------------------------|
E|---------------------------------------------------------------------|

E|----------------------------------------------------------------------|
B|------------10------10--------------10----10----------10----12----10--|
G|--12-----12p10------10--------------10----10----------10----12----10--|
D|------x-----------------12--12------------------12--------------------|
A|----------------------------------------------------------------------|
E|----------------------------------------------------------------------|

E|-------------------------13b15------13----13-------------------r----|
B|----------------------x-----------------------------13b15-----------|
G|-------------------x------------------------------------------------|
D|----------------x---------------------------------------------------|
A|--------------------------------------------------------------------|
E|--------------------------------------------------------------------|

E|-------------------------------------------------------------------10--|
B|------13b15------------13--------------------------------------10------|
G|-------------------------------------------------------12--------------|
D|-----------------------------------------------------------------------|
A|-----------------------------------------------------------------------|
E|-----------------------------------------------------------------------|

E|-----------------------------------------------------------x-----------|
B|--13p10----------------------------------------------------x-----------|
G|---------12----12b14----10----12p10--------10b12----------------12p10--|
D|-------------------------------------12-----------12----x-------12p10--|
A|-----------------------------------------------------------------------|
E|-----------------------------------------------------------------------|

E|---------------------------------------------------------------------|
B|---------------------------------------------------------------------|
G|---------------------------------------------------------------------|
D|---------------------------------------------------------------------|
A|----12p10----12p/10----8--------10p8----------------------------8----|
E|--------------------------------------10p8------10----10--10---------|

E|----------------------------------------------------------------------|
B|----------------------------------5h6p5-------------------------------|
G|--------------------------5--7-----------7----7p5-----5b7----------7--|
D|----------------------/7---------------------------7------------------|
A|----------------------------------------------------------------------|
E|--10p8----10----------------------------------------------------------|

E|---------------------------------------------------------------------|
B|----------6------b2------------13b15------------------------13b15----|
G|--x--7p5-------------------------------------------------------------|
D|---------------------------------------------------------------------|
A|---------------------------------------------------------------------|
E|---------------------------------------------------------------------|

E|----r---------------------------------15b17----------13p10----------|
B|-------------13b15------------13------------------------------------|
G|--------------------------------------------------------------------|
D|--------------------------------------------------------------------|
A|--------------------------------------------------------------------|
E|--------------------------------------------------------------------|

E|---------------13----12----15b17----r--b2--r--b2--r--------15b17----|
B|----/----15---------------------------------------------------------|
G|--------------------------------------------------------------------|
D|--------------------------------------------------------------------|
A|--------------------------------------------------------------------|
E|--------------------------------------------------------------------|

E|----------18b20------18b20--------------------20b22--------------20--|
B|----15---------------------------------------------------------------|
G|---------------------------------------------------------------------|
D|---------------------------------------------------------------------|
A|---------------------------------------------------------------------|
E|---------------------------------------------------------------------|

E|--17----20p17-------------------------------------------------------|
B|--------------------------------------------------------------------|
G|---------------------10--------------10--------10----b--------------|
D|----------------------------------------------------------12--------|
A|--------------------------------------------------------------------|
E|--------------------------------------------------------------------|


E|-----------------------------------------------------------------------|
B|---------------------10----10--x--x------------------------------------|
G|----------x----------10----10--x--x--------------x----------------10/h-|
D|----------x----12----------------------12--------x----10----10----12/h-|
A|-----------------------------------------------------------------------|
E|-----------------------------------------------------------------------|

E|---------------------------------------------------------------------|
B|--------13------12--------12------------10---------------------------|
G|--12----12------12--------12------------10--------------x------------|
D|--14----14-----------------------------------------------x----12-----|
A|---------------------------------------------------------------------|
E|---------------------------------------------------------------------|

E|--------------------------------------------------------------------|
B|--10--10--x--x------------------x------x--x-------------------------|
G|--10--10--x--x------------------x------x--x-------------------------|
D|--------------------12----------------------------------------------|
A|-----------------------------------------------10----8p10--10----x--|
E|--------------------------------------------------------------------|

E|-----------|
B|-----------|
G|-----------|
D|-----------|
A|----8------|
E|-------10--|


***********************************
h     hammer-on
p     pull-off
b     bend
r     bend release
/     slide up/down
<5>    natural harmonic
[5]    artifical harmonic
~     vibrato
tr    trill
***********************************
comments
print report bad tab
20 comments total. Showing first comments.
+2 reply
tokiko wrote on September 10 2003, 12:00 am

sounds good to me

+1 reply
rangi wrote on September 18 2003, 12:00 am

Just one thing.. After "All in all you're just another brick in the wall" if you play the G too , it sounds better. Other than that good.

+1 reply
nans87 wrote on July 31 2004, 12:00 am

missing some keys in the solo, but otherwise good try.

I want to post or [tab]
guest
You may want to rate the tab now too:
select rating
Please do not post tabs as comments. Select "correction" instead!