Oops, an error
Loading. Please wait.

Another Brick In The Wall Part 2 Tab

version 2
version 2

Whole song

Interactive

118,538 views 360 this week
29 commentsread comments
1 2 3 4 5
excellent!
x 33
add to favorites
launch autoscroll
font size
0
reset
how to read this tab
guitar tuner
Autoscroll
slow
fast
+/-
esc
set tempo
stop
Help us to improve Ultimate-Guitar.com Take our survey!
×
Author
TheMutts 13,491
THE OFFICIAL "ANOTHER BRICK IN THE WALL PT. 2" TAB B33YATCH!!

Transcribed by www.mikesguitarsite.co.uk

Words & Music by Roger Waters

F5      1 3 3 x x x
C5      x 3 5 5 x x
D5      x 5 7 7 x x

all tuned E A D G B E
Gtr I, II, V - 'Dave Gilmour - dist. electric'
Gtr III, IV - 'Dave Gilmour - clean electric w/flanger'


[Verse]

   Q=105
  4/4
   Gtrs I, II
                  ~~~
   Q     E E    E Q.       Q      E E    E Q.
e|-----------------------|------------------------|
B|-----------------------|------------------------|
G|-7-----9-9b10---9------|-7------9-9b10---9------|
D|-----------------------|------------------------|
A|-5-----7-7b8----7------|-5------7-7b8----7------|
E|-----------------------|------------------------|
| Q     E E    E Q.       Q      E E    E Q.

    Gtr III
           PM                       PM
   E S S E E    E E  E E   E.   S E E    E E  E E
e|-5-5-5--------5----5---|-5----5--------5----5---|
B|-6-6-6--------6----6---|-6----6--------6----6---|
G|-7-7-7--------7----7---|-7----7--------7----7---|
D|-7-7-7---7----7----7---|-7----7---7----7----7---|
A|-5-5-5---5-------------|-5----5---5-------------|
E|-----------------------|------------------------|
 
   Gtr IV
   E S S E E    E E  E E   E  S S E E    E E  E E
e|-1-1-1--------1----1---|-1--1-1--------1----1---|
B|-3-3-3--------3----3---|-3--3-3--------3----3---|
G|-2-2-2--------2----2---|-2--2-2--------2----2---|
D|-0-0-0---0----0----0---|-0--0-0---0----0----0---|
A|-----------------------|------------------------|
E|-----------------------|------------------------|


     +W
e||--------------------------------|
B||o-------------------------------|
G||--(9)---------------------------|
D||--------------------------------|
A||o-(7)---------------------------|
E||--------------------------------|
    +W
 
               PM
      E. S S S E   S S S S S S S S
e||---5--5---------5-5-x-x-5-5-x-x-|
B||o--6--6---------6-6-x-x-6-6-x-x-|
G||---7--7---------7-7-x-x-7-7-x-x-|
D||---7--7---x-7---7-7-x-x-7-7-x-x-|
A||o--5--5---x-5-------------------|
E||--------------------------------|
 
      E. S S S S S S S S S S S E
e||---1--1---------1-1-x-x-1-1-x---|
B||o--3--3---------3-3-x-x-3-3-x---|
G||---2--2---------2-2-x-x-2-2-x---|
D||---0--0---x-0-0-0---0-0---------|
A||o-------------------------------|
E||--------------------------------|


   +H            H
e|-------------------------------|
B|-------------------------------|
G|-(9)---------------------------|
D|-------------------------------|
A|-(7)---------------------------|
E|-------------------------------|
  +H            H
 
             PM|     PM      PM
    E. S S S S S S S S S S S S S
e|--5--5---------5-5-x-x-5---x---|
B|--6--6---------6-6-x-x-6-6-x---|
G|--7--7---------7-7-x-x-7-7-x---|
D|--7--7---x-7-7-7-7-x-x-7-7-x---|
A|--5--5---x-5-5-----5-----------|
E|-------------------------------|
 
    E. S S S S S S S S S S S E
e|--1--1---------1-1-x-x-1-1-x---|
B|--3--3---------3-3-x-x-3-3-x---|
G|--2--2---------2-2-x-x-2-2-x---|
D|--0--0---x-0-0-0---0-0---------|
A|-------------------------------|
E|-------------------------------|


                  ~~~                    ~~~~
   Q     E E    E Q.       Q      E  E  +H
e|-----------------------|-------------------------|
B|-----------------------|-------------------------|
G|-7-----9-9b10---9------|-7------9-10-(10)--------|
D|-----------------------|-------------------------|
A|-5-----7-7b8----7------|-5------7--8--(8)--------|
E|-----------------------|-------------------------|
| Q     E E    E Q.       Q      E  E  +H
 
           PM                        PM
   E S S E E    E E  E E   E.   S E  E   E  E E E
e|-5-5-5--------5----5---|-5----5--------5----5----|
B|-6-6-6--------6----6---|-6----6--------6----6----|
G|-7-7-7--------7----7---|-7----7--------7----7----|
D|-7-7-7---7----7----7---|-7----7----7---7----7----|
A|-5-5-5---5-------------|-5----5----5-------------|
E|-----------------------|-------------------------|
 
   E S S E E    E E  E E   E  S S E  E   E  E E E
e|-1-1-1--------1----1---|-1--1-1--------1----1----|
B|-3-3-3--------3----3---|-3--3-3--------3----3----|
G|-2-2-2--------2----2---|-2--2-2--------2----2----|
D|-0-0-0---0----0----0---|-0--0-0----0---0----0----|
A|-----------------------|-------------------------|
E|-----------------------|-------------------------|


    +W
e|------------------------------|
B|------------------------------|
G|-(10)-------------------------|
D|------------------------------|
A|--(8)-------------------------|
E|------------------------------|
   +W
 
              PM|
     E. S E   S S S S S S S S E
e|---5--5---------5-5-x-x-5-5---|
B|---6--6---------6-6-x-x-6-6---|
G|---7--7---------7-7-x-x-7-7---|
D|---7--7-----7-7-7-7-x-x-7-7---|
A|---5--5-----5-5---------------|
E|------------------------------|
 
     E. S S S S S S S S S S S E
e|---1--1---------1-1-x-x-1-1-x-|
B|---3--3---------3-3-x-x-3-3-x-|
G|---2--2---------2-2-x-x-2-2-x-|
D|---0--0---x-0-0-0---0-0-------|
A|------------------------------|
E|------------------------------|


                                                   ~~~
    +H            H                 Q     E E    E Q.
e|--------------------------------|------------------------|
B|--------------------------------|------------------------|
G|-(10)---------------------------|-7-----9-9b10---9-------|
D|--------------------------------|------------------------|
A|--(8)---------------------------|-5-----7-7b8----7-------|
E|--------------------------------|------------------------|
   +H            H                 Q     E E    E Q.
 
              PM|     PM      PM            PM
     E. S S S S S S S S S S S S S   E S S E E    E E  E E
e|---5--5---------5-5-x-x-5---x---|-5-5-5--------5----5----|
B|---6--6---------6-6-x-x-6-6-x---|-6-6-6--------6----6----|
G|---7--7---------7-7-x-x-7-7-x---|-7-7-7--------7----7----|
D|---7--7---x-7-7-7-7-x-x-7-7-x---|-7-7-7--------7----7----|
A|---5--5---x-5-5-----5-------5---|-5-5-5---5--------------|
E|--------------------------------|------------------------|
 
     E. S S S S S S S S S S S E     E S S E E    E E  E E
e|---1--1---------1-1-x-x-1-1-x---|-1-1-1--------1----1----|
B|---3--3---------3-3-x-x-3-3-x---|-3-3-3--------3----3----|
G|---2--2---------2-2-x-x-2-2-x---|-2-2-2--------2----2----|
D|---0--0---x-0-0-0---0-0---------|-0-0-0---0----0----0----|
A|--------------------------------|------------------------|
E|--------------------------------|------------------------|


   Q      E E    E Q.       +W
e|------------------------|-------------------------------|
B|------------------------|-------------------------------|
G|-7------9-9b10---9------|-(9)---------------------------|
D|------------------------|-------------------------------|
A|-5------7-7b8----7------|-(7)---------------------------|
E|------------------------|-------------------------------|
  Q      E E    E Q.       +W
 
            PM                        PM
   E.   S E E    E E  E E    E. S S S E   S S S S S S S S
e|-5----5--------5----5---|--5--5---------5-5-x-x-5-5-x---|
B|-6----6--------6----6---|--6--6---------6-6-x-x-6-6-x---|
G|-7----7--------7----7---|--7--7---------7-7-x-x-7-7-x---|
D|-7----7---7----7----7---|--7--7---x-7---7-7-x-x-7-7-x---|
A|-5----5---5-------------|--5--5---x-5-------------------|
E|------------------------|-------------------------------|
 
   Gtr IV
   E  S S E E    E E  E E    E. S S S S S S S S S S S E
e|-1--1-1--------1----1---|--1--1---------1-1-x-x-1-1-x---|
B|-3--3-3--------3----3---|--3--3---------3-3-x-x-3-3-x---|
G|-2--2-2--------2----2---|--2--2---------2-2-x-x-2-2-x---|
D|-0--0-0---0----0----0---|--0--0---x-0-0-0---0-0---------|
A|------------------------|-------------------------------|
E|------------------------|-------------------------------|


   +H            H
e|-------------------------------|
B|-------------------------------|
G|-(9)---------------------------|
D|-------------------------------|
A|-(7)---------------------------|
E|-------------------------------|
  +H            H
 
             PM
    E. S S S E   S S S S S S S S
e|--5--5---------5-5-x-x-5-5-x---|
B|--6--6---------6-6-x-x-6-6-x---|
G|--7--7---------7-7-x-x-7-7-x---|
D|--7--7---x-7---7-7-x-x-7-7-x---|
A|--5--5---x-5-------------------|
E|-------------------------------|
 
           PM--|
    E. S S S S S S S S S E   E
e|--1--1---------1-1-x-x---------|
B|--3--3---------3-3-x-x---------|
G|--2--2---------2-2-x-x-2---2---|
D|--0--0---0-0-0---------0---0---|
A|-------------------------------|
E|-------------------------------|


                     ~~~                      ~~~~~
   Q      E E      E Q.       Q    E    E    +H
e|--------------------------|--------------------------------|
B|--------------------------|--------------------------------|
G|-7------9-9b10-----9------|-7----9---10---(10)-------------|
D|--------------------------|--------------------------------|
A|-5------7-7b8------7------|-5----7----8----(8)s==========5-|
E|--------------------------|--------------------------------|
| Q      E E      E Q.       Q    E    E    +Q.           E
 
           PM---|
  E.   S E S    S E E  E E   E. S E    E     S  E   S E   E
|-5----5-x--------5-5--5---|-5--5-5----------5------x-5---0-|
|-6----6-x--------6-6--6---|-6--6-6----------6------6-6---0-|
|-7----7-x--------7-7--7---|-7--7-7----------7------7-7---0-|
|-7----7-x-7----7-7-7--7---|-7--7-7----------7------7-7---0-|
|-5----5---5----5----------|-5--5------------5------5-5-----|
|--------------------------|--------------------------------|
 
   E  S S E E      E E  E E   E. S S S  S S   S  S S S S S E
e|-1--1-1----------1----1---|-1--1------------1--1-x-x-1-1-x-|
B|-3--3-3----------3----3---|-3--3------------3--3-x-x-3-3-x-|
G|-2--2-2----------2----2---|-2--2------------2--2-x-x-2-2-x-|
D|-0--0-0---0------0----0---|-0--0---x--0-0---0----0-0-------|
A|--------------------------|--------------------------------|
E|--------------------------|--------------------------------|


   W
e|-----------------------------------|
B|-----------------------------------|
G|-0---------------------------------|
D|-5---------------------------------|
A|-----------------------------------|
E|-----------------------------------|
 
   S S S S S S E   S S  E    S S S S
e|-3-3-3-3-3-------3---------3---3-3-|
B|-3-3-3-3-3-------3---------3---3-3-|
G|-4-4-4-4-4-------4---(4)---4---4-4-|
D|-5-5-5-5-5---5---5----5----5---5-5-|
A|-----------------------------------|
E|-----------------------------------|
 
   S S S S S S S S S S  S  S S S S S
e|-7-7-7-7-7-7-7-7-7-7--7--7-7-7-7-7-|
B|-8-8-8-8-8-8-8-8-8-8--8--8-8-8-8-8-|
G|-7-7-7-7-7-7-7-7-7-7--7--7-7-7-7-7-|
D|-----------------------------------|
A|-----------------------------------|
E|-----------------------------------|


   +H                +Q.            S  S
e|---------------------------------------|
B|---------------------------------------|
G|-(0)---------------(0)-----------12-12-|
D|-(5)---------------(5)-----------12-12-|
A|---------------------------------10-10-|
E|---------------------------------------|
 
                           PM
    S  S E   S S S S  S  S E   E    S  S
e|--3--3-3---3--------3--------3----3--3-|
B|--3--3-3---3--------3--------3----3--3-|
G|--4--4-4---4--------4--------4----4--4-|
D|--5--5-5---5---5-x--5----5---5----5--5-|
A|---------------------------------------|
E|---------------------------------------|
 
    S  S S S S S S S  S  S S S S S  S  S
e|--7--7-7-7-7-7-7-7--7--7-7-7-7-7--7--7-|
B|--8--8-8-8-8-8-8-8--8--8-8-8-8-8--8--8-|
G|--7--7-7-7-7-7-7-7--7--7-7-7-7-7--7--7-|
D|---------------------------------------|
A|---------------------------------------|
E|---------------------------------------|


    S  S  E    +H.                          +W
e|---------------------------------------|----------------------------------|
B|---------------------------------------|----------------------------------|
G|-12-12-12---(12)-----------------------|-(12)-----------------------------|
D|-12-12-12---(12)-----------------------|-(12)-----------------------------|
A|-10-10-10---(10)-----------------------|-(10)-----------------------------|
E|---------------------------------------|----------------------------------|
 
    S  S  E     S  S E   S S S S S S S S     S  S E   S S E   E   E   E E
e|--3--3--3-----3--------3-------3---3-3-|---3--3-3---3-------3-------3-----|
B|--3--3--3-----3--------3---3-3-3---3-3-|---3--3-3---3-------3-------3-----|
G|--4--4--4-----4--------4---4-4-4---4-4-|---4--4-4---4-------4-------4-----|
D|--5--5--5-----5----5---5---5-5-5---5-5-|---5--5-5---5---5---5-------5-----|
A|---------------------------------------|----------------------------------|
E|---------------------------------------|----------------------------------|
 
    S  S  S S   S  S S S S S S S S S S S     S  S S S S S S S S S S S E E
e|--7--7--7-7---7--7-7-7-7-7-7-7-7-7-7-7-|---7--7-7-7-7-7-7-7-7-7-7-7-7-0---|
B|--8--8--8-8---8--8-8-8-8-8-8-8-8-8-8-8-|---8--8-8-8-8-8-8-8-8-8-8-8-8-0---|
G|--7--7--7-7---7--7-7-7-7-7-7-7-7-7-7-7-|---7--7-7-7-7-7-7-7-7-7-7-7-7-0---|
D|---------------------------------------|----------------------------------|
A|---------------------------------------|----------------------------------|
E|---------------------------------------|----------------------------------|


   Gtr III
            PM--|
   E. S S S S S S S  S S s S S s    E.  S E S S S S S S S S S S
e|-5--5-------------10-----8---0-|-10--10---8---8---7-7-7---0----||
B|-6--6-6-----------10---0-8---0-|-10--10---8---8---8-8-8---0----||
G|-7--7-7---7-7-7---10-----9-----|-10--10---9---9---7-7-7---0----||
D|-7--7-7------------------------|-------------------------------||
A|-------------------------------|-------------------------------||
E|-------------------------------|-------------------------------||
 
   Gtr IV
   E. S Q       E    S S S S E      E.  S E S S S S S S S S S S
e|-5--5-------------10-----8-----|-10--10---8---8---7-7-7---5----||
B|-6--6-------------10-----8-----|-10--10---8---8---8-8-8---6----||
G|-7--7-------------10-----9-----|-10--10---9---9---7-7-7---5----||
D|-------------------------------|-------------------------------||
A|-------------------------------|-------------------------------||
E|-------------------------------|-------------------------------||


[Chorus]

  F5                              C5
  Gtrs I, II
  W                               W
                                   
  /                               /

   Gtr III
   S S S S S S S S S S S S S S E   S S S S S S S S S S S S S S E
e|-5-5-5-5-5-5-5-5-5-5-5-5-5-5-5-|-8-8-8-8-8-8-8-8-8-8-8-8-8-8-8-|
B|-6-6-6-6-6-6-6-6-6-6-6-6-6-6-6-|-8-8-8-8-8-8-8-8-8-8-8-8-8-8-8-|
G|-5-5-5-5-5-5-5-5-5-5-5-5-5-5-5-|-5-5-5-5-5-5-5-5-5-5-5-5-5-5-5-|
D|-------------------------------|-------------------------------|
A|-------------------------------|-------------------------------|
E|-------------------------------|-------------------------------|
 
   Gtr IV
   Q       e   E   e   E   e   E   Q       e   E   e   E   e   E
e|-1-------1-------1-------1-----|-0-------0-------0-------0-----|
B|-1-------1-------1-------1-----|-1-------1-------1-------1-----|
G|-2-------2-------2-------2-----|-0-------0-------0-------0-----|
D|-3-------3-------3-------3-----|-2-------2-------2-------2-----|
A|-------------------------------|-3-------3-------3-------3-----|
E|-------------------------------|-------------------------------|


  D5
  W                         +W
                              
  /                          /

             PM                         PM|
   S E S S S E S S E S S E    S E S S S S S S S E E   E
e|-5---5-5-----5-5---5-5---|--5---5-5-------5-5---5---0-|
B|-5h6-6-6-----6-6p5-6-6p5-|--5h6-6-6-------6-6---6---0-|
G|-5-7-7-7---5-7-7p5-7-7p5-|--5-7-7-7-------7-7---7---0-|
D|-------------------------|--5-7-7-7---7-7-------------|
A|-------------------------|----------------------------|
E|-------------------------|----------------------------|
 
                                        PM
   S E S S S E S S E S S E    S E S S S E   S S E S S E
e|-1---1-1-----1-1---1-1---|--1---1-1-------1-1---1-1---|
B|-3---3-3-----3-3---3-3---|--3---3-3-------3-3---3-3---|
G|-0h2-2-2---2-2-2---2-2---|--0h2-2-2---2---2-2---2-2---|
D|-0---0-0---0-0-0---0-0---|--0---0-0---0---0-0---0-0---|
A|-------------------------|----------------------------|
E|-------------------------|----------------------------|


  F5
  W
   
  /

   S S S S S S S S S S S S S S S S
e|-5-5-5-5-5-5-5-5-5-5-5-5-5-5-5-5-|
B|-6-6-6-6-6-6-6-6-6-6-6-6-6-6-6-6-|
G|-5-5-5-5-5-5-5-5-5-5-5-5-5-5-5-7-|
D|---------------------------------|
A|---------------------------------|
E|---------------------------------|
 
   Q       e   E   e   E   e   E
e|-1-------1-------1-------1-------|
B|-1-------1-------1-------1-------|
G|-2-------2-------2-------2-------|
D|-3-------3-------3-------3-------|
A|---------------------------------|
E|---------------------------------|


                                     1.
  C5                                  D5
  W                                   S E.   Q  H      W
                                       
  /                                   /

   S S S S  S  S S S S S S S S S S S   S S  E Q  H      W
e|-8-8-8-8--8--8-8-8-8-8-8-8-8-8-5-5-|-5-5------------|------|
B|-8-8-8-8--8--8-8-8-8-8-8-8-8-8-6-6-|-6-6------------|------|
G|-5-5-5-5--5--5-5-5-5-5-5-5-5-5-7-7-|-7-7------------|------|
D|-----------------------------------|----------------|------|
A|-----------------------------------|----------------|------|
E|-----------------------------------|----------------|------|
|
   Q       +E    E   e   E   e   E     S E.   Q  H      W
e|-0-------(0)-------0-------0-------|-1--------------|------|
B|-1-------(1)-------1-------1-------|-3--------------|------|
G|-0-------(0)-------0-------0-------|-2--------------|------|
D|-2-------(2)-------2-------2-------|-0--------------|------|
A|-3-------(3)---3---3---3---3---3---|----------------|------|
E|-----------------------------------|----------------|------|


   W          W
e|----------|-------||
B|----------|------o||
G|----------|-------||
D|----------|-------||
A|----------|------o||
E|----------|-------||


  2.
  D5
  Gtrs I, II
  W              +W
                   
  /               /

   Gtr III
   S E. Q  H       W
e|-5------------|--------------------------------------------|
B|-6------------|--------------------------------------------|
G|-7------------|--------------------------------------------|
D|--------------|--------------------------------------------|
A|--------------|--------------------------------------------|
E|--------------|--------------------------------------------|
|
   Gtr IV
   S E. Q  H       S S S S S S S S  Q           Q
e|-2------------|--------------------------------------------|
B|-3------------|--------------------------------------------|
G|-2------------|--------------------------------------------|
D|-0------------|----0-0-0-0-0-0-0--0------------------------|
A|--------------|--------------------------------------------|
E|--------------|--------------------------------------------|
|
   Gtr V
   W               H                S  S  S  S  S     S  S S
e|--------------|---------------------------------------10---|
B|--------------|------------------13p10----10-------10------|
G|--------------|------------------------12----12b14---------|
D|--------------|--------------------------------------------|
A|--------------|--------------------------------------------|
E|--------------|--------------------------------------------|


[Solo]

   Gtr V
              ~~~~~~~~~
    Q.       +E   +Q    Q     S  S S  S Q  E E  S     +S  S  S
e|-------------------------|-10------------------------------------|
B|-13b15====(15)-(15)r-----|-10-10---10------x-13b15-(15)---13b17==|
G|-------------------------|-10-10---10----------------------------|
D|-------------------------|---------------------------------------|
A|-------------------------|---------------------------------------|
E|-------------------------|---------------------------------------|


           ~~~~~~~~~
    +Q    +Q    +Q    S  S  S S
e|-------------------------------|
B|-(17)r=(13)--(13)--13p10-------|
G|-------------------------12----|
D|-------------------------------|
A|-------------------------------|
E|-------------------------------|


                                                 ~~~~
    Q       +E   +E  a a  S S  S S  S  S  S S    E..  T  S E. Q   S  S  S S
e|--------------------------------------------|-----------------------------|
B|--------------------------------------------|---------10-------10---------|
G|-12b14===(14)r(12)-----10p9----9-------12---|---------10-------10---------|
D|---------------------x------12---10s12----x-|-12---12-------------12-12---|
A|-------------------x------------------------|-----------------------------|
E|--------------------------------------------|-----------------------------|


          ~~~~~~~         ~~~
    E  S  S  +E   S S  S  E.  S S  S  S
e|--------------------------------------|
B|-10-10---------10---10-----10---12-10-|
G|-10-10---------10---10-----10---12-10-|
D|-------12-(12)---------12-------------|
A|--------------------------------------|
E|--------------------------------------|


                                    -3-|
    +E.  +S       Q  H      H    E S S S  Q
e|------------------------|--------------13b15====|
B|-(10)-(10)b10.5---------|------------x----------|
G|-(10)-(10)b10.5---------|----------x------------|
D|------------------------|--------x--------------|
A|------------------------|-----------------------|
E|------------------------|-----------------------|


    Q   +E   S   S   S   S   S S S E.
e|-13r=(13)-13p(12)-13p(12)-10-x-x----|
B|------------------------------------|
G|------------------------------------|
D|------------------------------------|
A|------------------------------------|
E|------------------------------------|


                                                              ~~~~
    a      +E    a       +E   +Q    +E       +Q    +E        +Q   S E. H      W
e|--------------------------------------------------------|-----------------|------|
B|-13b15==(15)r(13)b17==(17)-(17)--(17)b18==(18)r=(13)b15-|-(15)--x---------|------|
G|--------------------------------------------------------|-------x---------|------|
D|--------------------------------------------------------|-----------------|------|
A|--------------------------------------------------------|-----------------|------|
E|--------------------------------------------------------|-----------------|------|


    E     S  S  S  S  S S  S      +S   S S  S  S  E
e|----------10--------------------------------------|
B|-------10----13p10--------------------------------|
G|-12b14-------------12---12pb14r(12)-10---12p10----|
D|-----------------------------------------------12-|
A|--------------------------------------------------|
E|--------------------------------------------------|


                                                        PM|
    S       S S S  S  S  S  S  S  S E  S S  S S    S S  S  S S  S E  Q   Q
e|--------------x-------------------------------|-----------------------------|
B|--------------x-------------------------------|-----------------------------|
G|-10b10.5--------12-10-------------------------|------------------------x----|
D|---------12-x---12-10-------------------------|------------------------x----|
A|----------------------12p10-12p10-8-10p8------|------------8----------------|
E|-----------------------------------------10p8-|-10---10-10---10p8-10\-------|


                        PM
             -3-|
   E  E e E S S S e S S e   E S S S S E   +E.   +S  Q
e|------------------------|----------------------------|
B|----------5h6p5---------|-----------6b7-(7)b8-(8)----|
G|------5-7-------7-7p5---|-5-7-x-7p5------------------|
D|---/7-----------------7-|----------------------------|
A|------------------------|----------------------------|
E|------------------------|----------------------------|


                              -----3-----|
  E a a  Q.        +E.  +S   E     +E   +E
e|------------------------------------------------|
B|-------13pb15====(15)r(13)-13b15r(13)-(13)b17===|
G|-----x------------------------------------------|
D|---x--------------------------------------------|
A|------------------------------------------------|
E|------------------------------------------------|


               ~~~~~~~~~~~~~~~                            ~~~~
    +E.  +S   +H.         +H.      E a S  S        +Q    +Q    +S   S  S  S Q
e|---------------------|-----------------15b17==|=(17)--(17)--(17)r---13p10----|
B|-(17)r(13)-(13)------|-(13)----------0--------|-------------------x----------|
G|---------------------|-------------x----------|------------------------------|
D|---------------------|------------------------|------------------------------|
A|---------------------|------------------------|------------------------------|
E|---------------------|------------------------|------------------------------|


                    >                          <
   e   e  s s  s s  s      +s   +s       +s   +s       +s   +s       +s
e|-------13---12---15b17==(17)r(15)b17==(17)r(15)b17==(17)r(15)b17==(17)---|
B|---/15-------------------------------------------------------------------|
G|-------------------------------------------------------------------------|
D|-------------------------------------------------------------------------|
A|-------------------------------------------------------------------------|
E|-------------------------------------------------------------------------|


                                                   ~~~~~~    ~~~~~~
    +h       e      +e    s  e.   q   a      +q    q      e  a      +e
e|-(17)r----15pb17r(15)-(15)----|----18b19==(19)--18pb19----20b22==(22)-|
B|-----------------------15-----|---------------------------------------|
G|------------------------------|---------------------------------------|
D|------------------------------|---------------------------------------|
A|------------------------------|---------------------------------------|
E|------------------------------|---------------------------------------|


     ~~~~~
    +h      e  s  s q     s  s e q  e  e s  s e
e|-(22)r------20p17----|-20p17-------------------|
B|---------------------|-------------------------|
G|---------------------|--------------10---10----|
D|---------------------|-------------------------|
A|---------------------|-------------------------|
E|---------------------|-------------------------|


                  ~~     pm|
    e.  +s        h    e s s    s  s  e s s  s s  s e  s  +e   e
e|---------------------------|-----------------------------------|
B|---------------------------|-------13-----11---12---12-(12)-10-|
G|-10--(10)b10.5-------x-x-x-|-10s12-12---x-10---12---12-(12)-10-|
D|---------------12----x-x-x-|-12s14-14---x-12-------------------|
A|---------------------------|-----------------------------------|
E|---------------------------|-----------------------------------|


                  pm
    +e. s q  e s  s  e      s s
e|------------------------------|
B|-(10)-------------10b10.5-x-x-|
G|-(10)p9------x----10b10.5-x-x-|
D|-------------x-12-------------|
A|------------------------------|
E|------------------------------|


[Outro]

                                                 approx 39 secs.
    ~~                                ~~~        w/misc. noises & fx
    q  s e. s s  s s e      s s    s  e. q  h      w
e|------------------------------||---------------|------*|
B|------------------------------||---------------|------*|
G|-----x----x-x-----------------||---------------|------*|
D|-12--x----x-x-----------------||---------------|------*|
A|--------------10---8b8.5-10-x-||-8-------------|------*|
E|------------------------------||---10----------|------*|



************************************

| x    Dead note
| (n)  Ghost note
| h    Hammer-on
| p    Pull-off
| b    Bend
| pb   Pre-bend
| /    Slide up
| \    Slide down 

************************************
Suggest correction new What's this?
You can suggest a correction to this tab. Community and Mods will review your correction and vote to approve or reject it.
comments
print report bad tab
29 comments total. Showing first comments.
0 reply
Sam1789 112 wrote on March 27 2005, 12:00 am

Brilliant! This is a work of art. Best PF Tab on the net.
Except, it would be good if there was a legend. I can't remember what equals signs mean.

0 reply
GAC1989 512 wrote on August 16 2005, 12:00 am

sorry to be an ass could u give like a compromise of wat played for just one or two guitars

0 reply
GAC1989 512 wrote on August 16 2005, 12:00 am

sorry to be an ass could u give like a compromise of wat played for just one or two guitars

guest
You may want to rate the tab now too:
select rating
Please do not post tabs as comments. Select "correction" instead!