Oops, an error
Loading. Please wait.
We have an official Another Brick In The Wall Part 2 tab made by UG professional guitarists. Check out the tab »
×
5,638 views 423 this week
5 commentsread comments
1 2 3 4 5
x 5
add to favorites
×
Save as Personal and add changes to this tab that will be seen only by you. Learn more ›
×
You can save this tab as Personal to edit and correct it or add notes. All changes will be seen only by you. Learn more »
launch autoscroll
font size
0
reset
how to read this tab
guitar tuner
backing track
0:00
0:00
edit
Autoscroll
slow
fast
+/-
esc
set tempo
stop
Author
Difficulty
Pink Floyd - Another Brick In The Wall, Part 2 (Song with Solo)

This is a great classic and few are unfamiliar with it.
Play the following chord riffs and you'll figure out
where they go in the song because it's obvious. My chord
tab is a basic presentation for the player who wants to
quickly learn to play the song. I doubt that most need
to play five guitar parts or are in bands with five
guitars so I didn't include the recorded layers of
multi-tracked guitars. My solo tab is more detailed.

Throw in some open Dm, F, C and G chords in place of the
same barre chords at your discretion for variation.

Most people want an accurate solo so I've created one.
I scoured the Internet for a perfect solo tab and was
frustrated that one didn't already exist to do this
classic the justice it deserves. Most were close but none
as spot on as I wanted so I spent a few hours painstakingly
creating my own. I modified the two four-fret bends with
easier ways to play the parts that sound the same. A few
parts in the solo are difficult for ears to interpret
because of the poor digital sound quality online and
Gilmour's multi-tracking, effects and distortion, but I
think I've nailed it. Play this solo with the song and I
hope that you'll agree. 2/14/17

standard tuning: EADGBe

Main Verse Rhythm Vamp Chord: Dm
e|-5-5-5------5-5--5-5---|
B|-6-6-6------6-6--6-6---|
G|-7-7-7--7---7-7--7-7---|
D|-7-7-7--7---7-7--7-7---|
A|-5-5-5--5---5-5--5-5---|
E|-----------------------|

Vamp Chord Before Transition to Chorus: G
e|-------------------------------|
B|-12-12-12-12-12-12-12--12--12--|
G|-12-12-12-12-12-12-12--12--12--|four bars
D|-12-12-12-12-12-12-12--12--12--|
A|-10-10-10-10-10-10-10--10--10--|
E|-------------------------------|

Short Transition to Chorus:
  Dm/F C/E             G/D    F/C
e|--10-8-10-10-10-8-8--7-7-7--5--|
B|--10-8-10-10-10-8-8--8-8-8--6--|
G|--10-9-10-10-10-9-9--7-7-7--5--|
D|-------------------------------|
A|-------------------------------|
E|-------------------------------|

Chorus:
   F   C     Dm
e|-1---------5-5-5------5-5--5-5-|
B|-1---5-----6-6-6------6-6--6-6-|
G|-2---5-----7-7-7--7---7-7--7-7-|
D|-3---5-----7-7-7--7---7-7--7-7-|
A|-3---3-----5-5-5--5---5-5--5-5-|
E|-1-----------------------------|

Octave Chords with "We don't need no education"
Verse Vocals:
e|-----------------------|
B|-----------------------|
G|-7--9-10-9--7--9-10-9--|
D|-----------------------|follow with verse chord
A|-5--7-8--7--5--7-8--7--|
E|-----------------------|

e|-----------------------|
B|-----------------------|
G|-7--9-10-9--7--9-10----|
D|-----------------------|
A|-5--7-8--7--5--7-8-----|
E|-----------------------|

Solo: in Dm blues scale

|---------------------10---------------------------|
|-13p10----10--------10---13b+(15)----10----10-----|
|-------12----12b(14)-----------------10----10-----|
|-------------------------------------10h12-10-----|
|--------------------------------------------------|
|--------------------------------------------------|

|--------------------------------------------------|
|-13/15-15b(17)r15--13^^-13^^--13p10---------------|
|-------------------------------------12-12b+(14)--|
|--------------------------------------------------|
|--------------------------------------------------|
|--------------------------------------------------|

|------------------------------------------------------------------------------|
|------------------------10----10------10-10-----10-10-------10--12-10qb-------|
|-10\9----9-------12-----10----10------10-10-----10-10-------10--12-10qb-------|
|------12---10/12----12^----------12---------12^-------12^---------------------|
|------------------------------------------------------------------------------|
|------------------------------------------------------------------------------|

|-------13b+(15)r13^---13p12--13p12--------------------------------------------|
|-----x----------------------------------13/(15)b+(17)b+(18)r15-13b(15)--x-----|
|---x--------------------------------------------------------------------x-----|
|-x----------------------------------------------------------------------------|
|------------------------------------------------------------------------------|
|------------------------------------------------------------------------------|

|------------10----------------------------------------------------------------|
|---------10----13p10----------------------------------------------------------|
|-12b(14)-------------12--12b(14)r12-10--12p10-----10----12p10-----------------|
|----------------------------------------------12----12--12p10-----------------|
|---------------------------------------------------------------12p10-12p10\8--|
|------------------------------------------------------------------------------|
                 PM
|------------------------------------------------------------------------------|
|-------------------------------------------5h6p5-------------------6b(7)b(8)--|
|--------------------------------------5-7---------7-7p5---5-7-7p5-------------|
|----------------x------0----------5/7-------------------7---------------------|
|-10p8-----------x------x------------------------------------------------------|
|------10p8-10---x-8-8-10\\\\\\\-----------------------------------------------|

|------------------------------------------15b(17)---13-------------13-12------|
|---13b+(15)r13--13h15b+(17)r15-13^^----13----------13h15-----13/15------------|
|-x-------------------------------------13-------------------------------------|
|---------------------------------------0--------------------------------------|
|------------------------------------------------------------------------------|
|------------------------------------------------------------------------------|

|-15b(17)r15b(17)r15b(17)r15b(17)r15---15b+(17)----|
|----------------------------------------------15--|
|--------------------------------------------------|
|--------------------------------------------------|
|--------------------------------------------------|
|--------------------------------------------------|

|-18b+(20)(20)--20b+(22)---20p17--20p17------------------------|
|--------------------------------------------------------------|
|-------------------------------------------10--10--10^--------|
|--------------------------------------------------------12^^--|
|--------------------------------------------------------------|
|--------------------------------------------------------------|

                                            (PH)*         (AH)
|------------------------------------------------------------------------------|
|------------13-----------12--12\10qb---x-x--12p10---------10------------------|
|-x-x-10/12--12---x-10----12--12\10qb---x-x--12p10---------10------------------|
|-x-x-12/14--14---x-12------------------------------x-x-12-----x---------------|
|--------------------------------------------------------------x-10-8-10--8----|
|---------------------------------------------------------------------------10-|

LEGEND:
| b(#) Bend To Fret        | b+   Sustained Bend
| r    Release Bend        | qb   Quarter Bend
| h    Hammer On           | p    Pull Off
| ^    Short Vibrato       | ^^   Long Vibrato
| /    Slide Up            | \    Slide Down
|(PH)  Pinch Harmonic      |(AH)  Artificial Harmonic
| x    Fret Hand Mute      | PM   Palm Mute
* Use tip of pick hand index finger for this pinch harmonic
Suggest correction
Creating personal tab
Creating personal tab
You can edit any tab online and save it as your Personal.

You can edit, replace or remove any tab part or add personal notes – all changes will be seen only by you.

Personal tabs can be accessed anytime from any device, even offline.
Learn more »
comments
print report bad tab
5 comments total. Showing first comments.
0 reply
oily18 10 May 12, 2017 06:24 AM

hi I was wondering for when I change d min to g can I use the g bar chord

+1 reply
oily18 10 May 13, 2017 02:05 AM

thanks for the info im not really a guitar player I play bass so it helps

+1 reply
Raido 12 3 days ago

Thanks for the tab, man

guest
You may want to rate the tab now too:
select rating
Wanna post a correction for this tab? Suggest correction