Oops, an error
Loading. Please wait.

Another Brick In The Wall Part 2 Bass Tab

version 4
version 4

Interactive

77,505 views 168 this week
16 commentsread comments
1 2 3 4 5
accurate
x 45
add to favorites
launch autoscroll
font size
0
reset
guitar tuner
Autoscroll
slow
fast
+/-
esc
set tempo
stop
Help us to improve Ultimate-Guitar.com Take our survey!
×
Contributor
VERSE 1
00:05           
g--------------------|
d--------------------|
a--------------------|
d-0~~~~~~~~~~~~~~~~0-|

0:14        (x4)          on the last one play this
g-----------------|---|   |---------------|
d-----------------|---|   |---------------|
a--3-5--5--5-0--3-|-5-|   |-3-5--5--5-0-0-|
d-----------------|---|   |---------------|

---------------------------------
CHORUS
0:33       0:36     0:38
g--------------------------------------|
d--------------------------------------|
a------------------------------------s-|
d-5~~~~~~~~5~~~~~~~~5~~~~5~~~~5-5-5-5\-|

0:42
g---|----------------|
d---|----------------|
a-5-|-3-5--5--5-0----|
d---|--------------5-|

0:47       0:49
g--------------------|
d--------------------|
a----------3~~~~~~~~-|
d-3~~~~~~~~----------|

0:52
g---|----------------|
d---|----------------|
a-5-|-3-5--5--5-0----|
d---|--------------5-|

0:56       0:59
g----------------------|
d----------------------|
a----------3~~~~~~~~-5-|
d-3~~~~~~~~------------|

---------------------------------
VERSE 2
1:10
g--------------------|
d--------------------|
a--------------------|
d-0~~~~~~~~~~~~~~~~0-|

01:20        (x4)          on the last one play this
g-----------------|---|   |---------------|
d-----------------|---|   |---------------|
a--3-5--5--5-0--3-|-5-|   |-3-5--5--5-0-0-|
d-----------------|---|   |---------------|

---------------------------------
CHORUS
1:38       1:40     1:43
g--------------------------------------|
d--------------------------------------|
a------------------------------------s-|
d-5~~~~~~~~5~~~~~~~~5~~~~5~~~~5-5-5-5\-|

1:47
g---|----------------|
d---|----------------|
a-5-|-3-5--5--5-0----|
d---|--------------5-|

1:52       1:54
g--------------------|
d--------------------|
a----------3~~~~~~~~-|
d-3~~~~~~~~----------|

1:57
g---|----------------|
d---|----------------|
a-5-|-3-5--5--5-0----|
d---|--------------5-|

2:01       2:04
g--------------------|
d--------------------|
a----------3~~~~~~~~-|
d-3~~~~~~~~----------|

2:06
g---|----------------|
d---|----------------|
a-5-|-3-5--5--5-0--3-|
d---|----------------|

The guitar solo alters between

g-------------------|      |----------------|
d-------------------|      |----------------| 
a-5--3-5--5--5-0--3-|  and |----3-5-----3-5-|  
d-------------------|      |-0-------0------|
        
 Thats it.
comments
print report bad tab
16 comments total. Showing first comments. show 1 bad comment
0 reply
herrly 1,049 wrote on May 18 2005, 12:00 am

great tab, and yes it is correct, it is drop d for the bottom string.

+4 reply
Sören 100 wrote on August 3 2007, 04:46 am

Little correction:

Solo part:
g----------------|
d----------------|
a----3-5-----3-5-|
d-0-------0------|

actually is

g----------------|
d----------------|
a----3-5--0--3-5-|
d-0--------------|

I want to post or [tab]
guest
You may want to rate the tab now too:
select rating
Please do not post tabs as comments. Select "correction" instead!