Oops, an error
Loading. Please wait.

Another Brick In The Wall Tab

version 1
version 1
698,423 views 546 this week
32 commentsread comments
1 2 3 4 5
x 89
add to favorites
launch autoscroll
font size
0
reset
how to read this tab
guitar tuner
Autoscroll
slow
fast
+/-
esc
set tempo
stop
Help us to improve Ultimate-Guitar.com Take our survey!
×
Author
Tuning
E A D G B E
Transcribed by Mark Weatherhead -zool175@csc.canterbury.ac.nz
I went on here a little while ago and was disappointed that there were no tabs to 
this song. So I took the liberty of finding a good version of it. This is pretty 
acurate, but if it's wrong in places, don't blame me i didn't write the friggen tab!
Heres the chord chart for the chords used in the song:

    +-+-+-+-+-+    +-+-+-+-+-+    +-+-+-+-+-+    +-+-+-+-+-+
 5  x o o o o o  3 o o o o o o  1 o o o o o o  5 o o o o o o
    +-+-+-+-+-+    +-+-+-+-+-+    +-+-+-+-+-+    +-+-+-+-+-+
 6  | | | | o |  4 | | | o | |  2 | | | o | |  6 | | | | | |
    +-+-+-+-+-+    +-+-+-+-+-+    +-+-+-+-+-+    +-+-+-+-+-+
 7  | | o o | |  5 | o o | | |  3 | o o | | |  7 | o o | | |
    +-+-+-+-+-+    +-+-+-+-+-+    +-+-+-+-+-+    +-+-+-+-+-+
      Dm (V)            G             F               Am

    +-+-+-+-+-+    +-+-+-+-+-+    +-+-+-+-+-+    +-+-+-+-+-+
  1 | | | | o | 10 o o o o o o  8 o o o o o o  1 o o o o o o
    +-+-+-+-+-+    +-+-+-+-+-+    +-+-+-+-+-+    +-+-+-+-+-+
  2 | | o | | | 11 | | | | | |  9 | | | o | |  2 | | | | | |
    +-+-+-+-+-+    +-+-+-+-+-+    +-+-+-+-+-+    +-+-+-+-+-+
  3 | o | | | | 12 | o o | | | 10 | o o | | |  3 | | o o o |
    +-+-+-+-+-+    +-+-+-+-+-+    +-+-+-+-+-+    +-+-+-+-+-+
         C           Dm (X)         C (VIII)         Bb   

Words:
 
Dm(v)
We  don't   need   no   education,
Dm(v)
We  don't  need no thought control,
Dm(v)
No dark sarcasm in the classroom.
Dm(v)                          G  
Teacher leave them kids alone.
G                                      
Hey, Teacher!  Leave them kids alone.
F                        C                       Dm(v) 
All in all it's just an - other brick in the wall.


F                         C                       Dm(v)
All in all it's just an - other brick in the wall.

Play 2 times



Fill #1:

Dm(x)     C(vii) Dm(x)        Dm(v)       Am       G     F
  /       /      /   //       /   /       / / /    /     /

Fill #2:

Dm(v)     Am       G    F
/   /     / / /    /    /


[Solo]

The guitar solo is played over the same bass line as the verse,
but the keyboards hold down some different chords which are
fairly subtle but really add to the feel of the piece.

NB: This solo by David Gilmour is quite modular in its structure
so I haven't really arranged it in bars, rather it's just the tab
of the phrases played.  


e|-------------------------10--------------------------------|
B|-13-p-10----10--------10----13b(15)--------------10-10-10--|
G|---------12----12b(14)---------------------------10-10-10--|
D|-----------------------------------------------------------|
A|-----------------------------------------------------------|
E|-----------------------------------------------------------|


e|-----------------------------------------------------------|
B|-13--b(15)-b(17)-rb(13)-------13-p-10----10----------------|
G|--------------------------------------12-------------------|
D|-----------------------------------------------------------|
A|-----------------------------------------------------------|
E|-----------------------------------------------------------|


e|-----------------------------------------------------------|
B|-----------------------------------------------------------|
G|-10-\-9 ---9---------12------------------------------------|
D|--------12---10-/-12----12---------------------------------|
A|-----------------------------------------------------------|
E|-----------------------------------------------------------|


e|-----------------------------------------------------------|
B|--10----------10--10------10--10------10--12--10-----------|
G|--10----------10--10------10--10------10--12--10-----------|
D|-----12--12-----------12----------12-----------------------|
A|-----------------------------------------------------------|
E|-----------------------------------------------------------|
                          
e|-------13b(15)-13-13---------------------------------------|
B|-----x------------------13b(15)b(17)b(18)-rb(15)b(17)------|
G|---x-------------------------------------------------------|
D|-x---------------------------------------------------------|
A|-----------------------------------------------------------|
E|-----------------------------------------------------------|
                                                       cont..
|--------10--------------------------------------------------|
|----------13p10--------------------------------------------|
|-12b(14)---------12--b(14)rb(12)-p-10---12-p-10-------10----|
|-----------------------------------------------12-------12-|
|-----------------------------------------------------------|
|-----------------------------------------------------------|


e|-----------------------------------------------------------|
B|-----------------------------------------------------------|
G|--12--10---------------------------------------------------|
D|--12--10---------------------------------------------------|
A|----------12--10---10--8--------------------8--------------|
E|--------------------------10p8-----10--10-----10p8--10-----|


e|-----------------------------------------------------------|
B|-----------------5h6p5--------------------------6b(8)------|
G|---------5--7---------7---7-p-5------5--5--7p5-------------|
D|----/7--------------------------7--------------------------|
A|-----------------------------------------------------------|
E|-----------------------------------------------------------|


e|-------------------------------------15b(17)-13------------|
B|--13b(15)---13b(15)b(17)rb(13)------------------15---------|
G|-----------------------------------------------------------|
D|-----------------------------------------------------------|
A|-----------------------------------------------------------|
E|-----------------------------------------------------------|

e|-----13-----15b(17)rb(15)b(17)rb(15)b(17)rb(15)----15b(17)-|
B|-/15----15-------------------------------------15---------1|
G|-----------------------------------------------------------|
D|-----------------------------------------------------------|
A|-----------------------------------------------------------|
E|-----------------------------------------------------------|

e|--18b(20)--(20)---20b(22)---20-p-17---20-p-17--------------|
B|-----------------------------------------------------------|
G|-----------------------------------------------------------|
D|-----------------------------------------------------------|
A|-----------------------------------------------------------|
E|-----------------------------------------------------------|

e|-----------------------------------------------------------|
B|-------------------------------------------12--12---10-----|
G|-10--10--10----------------------12--10----12--12---10-----|
D|-------------12------------------12--10------------(10)----|
A|----------------------10-10-10-----------------------------|
E|-----------------------------------------------------------|



e|-----------------------------------------------------------|
B|--x--x--10-------------------------------------------------|
G|--x--x--10---x--x------------------------------------------|
D|-------------------12--------------------------------------|
A|---------------------------------10---8---10---8-----------|
E|---------------------------------------------------10------|


[Keyboard]

NB: the chords are held down - the beats shown are just to
establish timing.


 | Dm /  /  /  | /  /  /  C |   x8
 | G  /  /  /  | /  /  /  / | Dm /  /  /  | /  /  /  /| x2
 | C  /  /  /  | /  /  /  / |
 | Bb /  /  /  | /  /  /  / |
 | C  /  /  /  | /  /  /  / |
 | no chord    ||end of solo


Key:

 -15b(17)-   => bend from 15th fret (whole step).
 -(17)rb(15) => release bend (back to 15th)
 -15-h-17-   => hammer-on.
 -17-p-15-   => pull-off.
 -17-\-15- , -15-/-17-  => slide (down and up respectively).

 -x- rake or just pick scrape.


Thats about it it's reasonably accurate, you have to give the guy that much credit 
at least. Just Write down any mistakes at the bottom of the page and if you think 
the tab is shithouse, keep it to yourself ok. :)



************************************

| x    Dead note
| (n)  Ghost note
| h    Hammer-on
| p    Pull-off
| /    Slide up
| \    Slide down

************************************
Suggest correction
comments
print report bad tab
32 comments total. Showing first comments. show 2 bad comments
0 reply
kboxer 10 Apr 14, 2002 12:00 AM

nice work bubba 5 stars!

guest
You may want to rate the tab now too:
select rating
Wanna post a correction for this tab? Suggest correction