Oops, an error
Loading. Please wait.

Arnold Layne Tab

version 1
version 1

Whole song

Interactive

17,348 views 27 this week
1 commentread comment
1 2 3 4 5
excellent!
x 4
add to favorites
launch autoscroll
font size
0
reset
how to read this tab
guitar tuner
Autoscroll
slow
fast
+/-
esc
set tempo
stop
Help us to improve Ultimate-Guitar.com Take our survey!
×
Contributor
Bissette-n 1,046
This is one of one of Sid Barretts better song

i love it

Standar tuning

Verse 1

Guitar 1 (electric)
e----------------------------------|
B----------------------------------|
G----------------------------------|
D----------------------------------|
A-/7-7-7-7-7-7-7-7-7-7-7-7-7-7-7-7-|
E-/5-5-5-5-5-5-5-5-5-5-5-5-5-5-5-5-|

e-----------------------------------------------------------------|
B-----------------------------------------------------------------|
G-----------------------------------------------------------------|
D-----------------------------------------------------------------|
A-7-7-7-7-7-7-7-7\5-5-5-5-5-5-5-5\4-4-4-4-4-4-4-4\3-3-3-3-3-3-3-3-|
E-5-5-5-5-5-5-5-5\3-3-3-3-3-3-3-3\2-2-2-2-2-2-2-2\1-1-1-1-1-1-1-1-|


 (guitar 2 strums chords)
e---------------------------------------3-3--2--2---|
B-------------------------------2-2-2---3-3--3----3-|
G----1------------------1-0-----2-2-2---0----2------|
D-----------2-----2-2-2-2-0---2--------------0------|
A-2-----2------2--2-2-2-2-0---0---------2-----------|
E-0-------------------------------------3-----------|

e-----------------------x-----------------------------|
B-----------------------x---7--5--2-------------------|
G-1---------------------x---7--5--2-------------------|
D-2------------2--2-----x---7--5--2-------------------|
A-2---2--2--2--2--2--2--x---5--3--0---0----0---0---0--|
E-0---0--0--0--0--0--0--------------------------------|

Verse 2

Guitar1
e----------------------------------|
B----------------------------------|
G----------------------------------|
D----------------------------------|
A-/7-7-7-7-7-7-7-7-7-7-7-7-7-7-7-7-|
E-/5-5-5-5-5-5-5-5-5-5-5-5-5-5-5-5-|

e-----------------------------------------------------------------|
B-----------------------------------------------------------------|
G-----------------------------------------------------------------|
D-----------------------------------------------------------------|
A-7-7-7-7-7-7-7-7\5-5-5-5-5-5-5-5\4-4-4-4-4-4-4-4\3-3-3-3-3-3-3-3-|
E-5-5-5-5-5-5-5-5\3-3-3-3-3-3-3-3\2-2-2-2-2-2-2-2\1-1-1-1-1-1-1-1-|


e---------------------------------------3-3--2--2---|
B-------------------------------2-2-2---3-3--3----3-|
G----1------------------1-0-----2-2-2---0----2------|
D-----------2-----2-2-2-2-0---2--------------0------|
A-2-----2------2--2-2-2-2-0---0---------2-----------|
E-0-------------------------------------3-----------|


e-----------------------x---------|
B-----------------------x---7--5--|
G-1---------------------x---7--5--|
D-2------------2--2-----x---7--5--|
A-2---2--2--2--2--2--2--x---5--3--|
E-0---0--0--0--0--0--0------------|


Chorus

  Oh arnold layne,
e-3-------2--2-------0----------------|
B-3--0----3----3-------2--------------|
G-0----0--2-------2---------2--2-0-0--|
D-0-------0-------2-------------------|
A-2---------------0-------------------|
E-3-----------------------------------|

 it's not the same
e-------------3--2---2---------------|
B----1-----3-----3------3------------|
G-0-----0--0-----2-----------2-------|
D-2-----0--0-----0-------------------|
A-3--------2-----------------------0-|
E----------3-------------------------|

  takes two to know
e-------------3--2---2---------------|
B---1------3-----3------3------------|
G-0---2-0--0-----2-----------2-------|
D-2--------0-----0-------------------|
A-3--------2-----------------------0-|
E----------3-------------------------|

 two to know
e----0-----0--0--0----0----x-----|
B----0-----0--0--0----0----x-----|
G-1--1-----1--1--1----1----x-----|
D-2--2-----2--2--2----2----x-----|
A-2--2-----2--2--2----2----x-----|
E-0--0-----0--0--0----0----x-----|

 two to know
e----3-----3--3--3----3----x----|
B----3-----3--3--3----3----x----|
G-4--4-----4--4--4----4----x----|
D-5--5-----5--5--5----5----x----|
A-5--5-----5--5--5----5----x----|
E-3--3-----3--3--3----3----x----|

  two to know                    why can't you see!
e-5--5-----5--5--5----5----x-x--|
B-5--5-----5--5--5----5----x-x--|
G-6--6-----6--6--6----6----x-x--|
D-7--7-----7--7--7----7----x-x--|
A-7--7-----7--7--7----7----x-x--|
E-5--5-----5--5--5----5----x-x--|

e-2---2--x--3---3--x--0---0--x--0-----|
B-3---3--x--3---3--x--0---0--x--2-----|
G-2---2--x--0---0--x--1---1--x--2-----|
D-0---0--x--0---0--x--2---2--x--2-----|
A-----------2---2--x--2---2--x--0-----|
E-----------3---3--x--0---0--x--------|

Bridge

  Arnold Layne.......
e---------------------------------|
B---------------------------------|
G---------------------------------|
D---------------------------------| x8
A-7-7-7-7-7-7-7-7-7-7-7-7-7-7-7-7-|
E-5-5-5-5-5-5-5-5-5-5-5-5-5-5-5-5-|

Then there is a keyboard solo and the guitar just hits random
notes in A mayjor.

Play verse 2 again
Play the chorus again
Play bridge again

Outro

Arnold layne don't do it again!
e-5--5---3----3---0--0--0--5--|
B-5--5---3----3---0--0--0--5--|
G-6--6---4----4---1--1--1--5--|
D-7--7---5----5---2--2--2--7--|
A-7--7---5----5---2--2--2--7--|
E-5--5---3----3---0--0--0--5--|

The end
Suggest correction new What's this?
You can suggest a correction to this tab. Community and Mods will review your correction and vote to approve or reject it.
comments
print report bad tab
1 comment total.
+1 reply
fr0zent0ast 21 wrote on January 27 2009, 10:00 pm

The power chords in the verse sound better a half-step up. Other than that, this is an ace tab.

guest
You may want to rate the tab now too:
select rating
Please do not post tabs as comments. Select "correction" instead!