Oops, an error
Loading. Please wait.

Astronomy Domine Tab

version 1
version 1

Whole song

Interactive

27,024 views 69 this week
2 commentsread comments
1 2 3 4 5
x 6
add to favorites
launch autoscroll
font size
0
reset
how to read this tab
guitar tuner
Autoscroll
slow
fast
+/-
esc
set tempo
stop
Help us to improve Ultimate-Guitar.com Take our survey!
×
Author
Here is Syd Barrett's amazing song.


    Gtr I
    PM----------------------------|
    E E E E E E 12x     E E E E E E  3x
||---------------||-||---------------||
||o-------------o||-||o-------------o||
||---------------||-||---------------||
||---------------||-||---------------||
||o-------------o||-||o-------------o||
||--0-0-0-0-0-0--||-||--0-0-0-0-0-0--||


   Gtrs I, II
   E    E  E Q  E   +H.        +H.        +H     +E  E
e|--------------0-|-(0)------|-(0)------|-(0)----(0)---|
B|-----------0--0-|-(0)------|-(0)------|-(0)----(0)---|
G|----------------|----------|----------|--------------|
D|-----------2--1-|-(1)------|-(1)------|-(1)----(1)---|
A|-----------2--1-|-(1)------|-(1)------|-(1)----(1)-2-|
E|-3b4-(3)-0------|----------|----------|--------------|


                                            Gtr I
   E    E  E Q  E   +H.            +Q.   Q.      Q.   E E E
e|-----------0--0-|-(0)----------|------------|--------------|
B|-----------0--0-|-(0)----------|-(0)---0----|--0----0-0-0--|
G|-----------0--0-|-(0)----------|------------|--------------|
D|-----------2--1-|-(1)----------|-(1)---1----|--1----1-1-1--|
A|-----------2--1-|-(1)----------|-(1)---1----|--1----1-1-1--|
E|-3b4-(3)-0------|--------------|------------|--------------|
|
 |              Gtr II
 | E    E  E Q  E       +H.        +H.          +H.
e|--------------0-|-----(0)------|------------|--------------|
B|--------------0-|-----(0)------|-(0)--------|-(0)----------|
G|--------------0-|-----(0)------|------------|--------------|
D|--------------1-|-----(1)------|-(1)--------|-(1)----------|
A|--------------1-|-----(1)------|-(1)--------|-(1)----------|
E|----------------|--------------|------------|--------------|


  PM----------------------------------------------|
  e e e e e e   e e e e e e   e e e e e e   e S S e Q.
|-------------|-------------|-------------|--------------|
|-0-0-0-0-0-0-|-0-0-0-0-0-0-|-0-0-0-0-0-0-|-0-0-0-0------|
|-1-1-1-1-1-1-|-1-1-1-1-1-1-|-1-1-1-1-1-1-|-1-1-1-1------|
|-2-2-2-2-2-2-|-2-2-2-2-2-2-|-2-2-2-2-2-2-|-2-2-2-2------|
|-2-2-2-2-2-2-|-2-2-2-2-2-2-|-2-2-2-2-2-2-|-2-2-2-2------|
|-0-0-0-0-0-0-|-0-0-0-0-0-0-|-0-0-0-0-0-0-|-0-0-0-0-1S===|
|
 |     W             W             W               W
e|-------------|-------------|-------------|--------------|
B|-------------|-------------|-------------|--------------|
G|-------------|-------------|-------------|--------------|
D|-------------|-------------|-------------|--------------|
A|-------------|-------------|-------------|--------------|
E|-------------|-------------|-------------|--------------|


    H.              E  E  E  Q.     H.        E E E Q  E   E E E E E E
e|-11------------|----------------|-3-------|------------|-3-3-3--------|
B|-11------------|----------------|-3-------|------------|-3-3-3--------|
G|-12------------|----------------|-4-------|------------|-4-4-4--------|
D|-13------------|----------------|-5-------|-5-5-5-5--5-|-5-5-5-5-5-5--|
A|-13------------|--------0-------|-5-------|-5-5-5-5--5-|-5-5-5-5-5-5--|
E|-11------------|-11-11----15S===|=3-------|-3-3-3-3--3-|-3-3-3-3-3-3--|
|
 |  Q.   E  E  E    E  E  E  Q  E   H.        W            W
e|---------11-11-|-11-11-11-11s=3-|-3-------|------------|--------------|
B|---------------|----------------|---------|------------|--------------|
G|---------------|----------------|---------|------------|--------------|
D|---------------|----------------|---------|------------|--------------|
A|---------------|----------------|---------|------------|--------------|
E|---------------|----------------|---------|------------|--------------|


   Q  E E E E   E e e e e e   e e e E S S E
e|-3----4-----|-------------|-------5---5-5-|
B|-3----4-----|-------------|-------5---5-5-|
G|-4----5-----|-------------|-------6---6-6-|
D|-5----6-----|-7-7-7-7-7-7-|-7-7-7-7---7-7-|
A|-5--5-6-----|-7-7-7-7-7-7-|-7-7-7-7---7-7-|
E|-3--3-4-4-4S|=5-5-5-5-5-5-|-5-5-5-5---5-5-|
|
 | W            E E E E E E   E E E E E   E
e|------------|-5-5-5-5-5-5s|=3-3-3s2-2h==3-|
B|------------|-------------|---------------|
G|------------|-------------|---------------|
D|------------|-------------|---------------|
A|------------|-------------|---------------|
E|------------|-------------|---------------|


   E S S S S S S S S S S   E S S S S Q    S  S
e|-5---5-------------5---|-5---5-5-5-5---12-12--|
B|-5-x-5-x-x-x-x-x-x-5-x-|-5-x-5-5-5-5---12-12--|
G|-6-x-6-x-x-x-x-x-x-6-x-|-6-x-6-6-6-6S==13-13--|
D|-7-x-7-x-x-x-x-x-x-7-x-|-7-x-7-7-7-7---14-14--|
A|-7-x-7-x-x-x-x-x-x-7-x-|-7-x-7-7-7-7---14-14--|
E|-5---5-------------5---|-5---5-5-5-5---12-12--|
|
 | E E   E   E   E   E     E E   E   E E  E
e|-3-3s==5---5---5---5---|-5-5---5---5s8--8-----|
B|-----------------------|----------------------|
G|-----------------------|----------------------|
D|-----------------------|----------------------|
A|-----------------------|----------------------|
E|-----------------------|----------------------|


                    <
    Q.     Q   E    E  E  E  E  E  E       E.  S  E  E  E  E
e|-12-----12--12-|-12-12-12-12-12-12----|-12--12-12-----------|
B|-12-----12--12-|-12-12-12-12-12-12----|-12--12-12-----------|
G|-13-----13--13-|-13-13-13-13-13-13----|-13--13-13-----------|
D|-14-----14--14-|-14-14-14-14-14-14----|-14--14-14-----------|
A|-14-----14--14-|-14-14-14-14-14-14----|-14--14-14-----------|
E|-12-----12--12-|-12-12-12-12-12-12----|-12--12-12-12-12-12--|
|
 |  E  Q   Q   E    E  E  E  E     E  E    Q.        Q     E
e|--8s12--12--12-|-12-12-12-12----12-12-|-12--------12----14--|
B|--------12--12-|-12-12-12-12----12-12-|-12--------12--------|
G|---------------|----------------------|-13------------------|
D|---------------|----------------------|---------------------|
A|---------------|----------------------|---------------------|
E|---------------|----------------------|---------------------|


    E  E  E  E  E E    E  E  E  E      S   E  S
e|------------------|----11---------------------|
B|------------------|----11-----------11--------|
G|------------------|-------13-13b14------13-11-|
D|--------0--0--0---|---------------------------|
A|--------0--0--0-0-|---------------------------|
E|-12-12------------|-11------------------------|
|
 |  Q     E  Q  E      Q     E        +Q.
e|-12-------12-12---|-11----11-------(11)-------|
B|-------12---------|---------------------------|
G|------------------|---------------------------|
D|------------------|---------------------------|
A|------------------|---------------------------|
E|------------------|---------------------------|


     e   e  E  e  E  S S   Q   E E E E    E  E E E E E
e|-----------------------|-3-----------|---------------|
B|-------------------0-0-|-3-----------|---------------|
G|--13--13-13-----0--0-0-|-4-----------|---------------|
D|-----------------------|-5---5-5-5-5-|--5--5-5-5-5-5-|
A|-----------------------|-5---5-5-5-5-|--5--5-5-5-5-5-|
E|------------11-11\-----|-3---3-3-3-3-|--3--3-3-3-3-3-|
|
 |  +Q.        Q.          H.            +H.
e|-(11)-------11S========|=3-----------|-(3)-----------|
B|-----------------------|-------------|---------------|
G|-----------------------|-------------|---------------|
D|-----------------------|-------------|---------------|
A|-----------------------|-------------|---------------|
E|-----------------------|-------------|---------------|


    E       E  E   E  E E    E  E E E  E E
e|--3---------------------|---------4--4-4---|
B|--3---------------------|---------4--4-4---|
G|--4---------------------|---------5--5-5S==|
D|--5-------5--5---5--5-5-|--5--5-5-6--6-6---|
A|--5-------5--5---5--5-5-|--5--5-5-6--6-6---|
E|--3-------3--3---3--3-3-|--3--3-3-4--4-4---|
|
 | +S  E.     +E  +E  E E   +Q.     Q.
e|-(3)--------------------|------------------|
B|-----5b6====(5)-(5)-5-3-|-(3)-----5--------|
G|------------------------|------------------|
D|------------------------|------------------|
A|------------------------|------------------|
E|------------------------|------------------|


    E  E  E E E E   E E E E E E   E E E E E E   E  E E Q.
e|--9--9--9-8-8-8-|-7-7-7-6-6-6-|-5-5-5---4---|----3---2/------|
B|-10-10-10-9-9-9-|-8-8-8-7-7-7-|-6-6-6-----5-|--------3/------|
G|--9--9--9-8-8-8-|-7-7-7-6-6-6-|-5-5-5-4-----|-3------2/------|
D|----------------|-------------|-------------|----------------|
A|----------------|-------------|-------------|----------------|
E|----------------|-------------|-------------|----------------|
|
 |        W             W             W         Q.   Q    E
e|----------------|-------------|-------------|-----------3S===|
B|----------------|-------------|-------------|----------------|
G|----------------|-------------|-------------|----------------|
D|----------------|-------------|-------------|----------------|
A|----------------|-------------|-------------|----------------|
E|----------------|-------------|-------------|----------------|


    E  E  E  E  E  E    E  E  E  E  E  E
e|-12-------11-------|-10--------9-------|
B|----10--------9----|-----8--------7----|
G|--------9--------8-|--------7--------6-|
D|-------------------|-------------------|
A|-------------------|-------------------|
E|-------------------|-------------------|
|
 |  E  E  E  E  E  E    E  E  E  E  E  E
e|-17-17-17-16-16-16-|-15-15-15-14-14-14-|
B|-------------------|-------------------|
G|-------------------|-------------------|
D|-------------------|-------------------|
A|-------------------|-------------------|
E|-------------------|-------------------|


    E  E  E  E  E  E    E  E  E  E  E  E
e|--8--------7-------|--6--------5--------|
B|-----6--------5----|-----4--------3-----|
G|--------5--------4-|--------3--------2--|
D|-------------------|--------------------|
A|-------------------|--------------------|
E|-------------------|--------------------|
|
 |  E  E  E  E  E  E    E  E  E  E  E  E
e|-13-13-13-12-12-12-|-11-11-11-10-10-10--|
B|-------------------|--------------------|
G|-------------------|--------------------|
D|-------------------|--------------------|
A|-------------------|--------------------|
E|-------------------|--------------------|


   H.          +H.            H.
e|-2---------|-(2)----------|-3------------|
B|-3---------|-(3)----------|-4------------|
G|-2---------|-(2)----------|-3------------|
D|-----------|--------------|-0------------|
A|-----------|--------------|--------------|
E|-----------|--------------|--------------|
|
 | Q.   Q.      Q   E E E E   E  E E E E E
e|-2---------|--2-----2---2-|-3--3---------|
B|-3----3----|------3---3---|------4-----4-|
G|-2---------|--------------|----------3---|
D|-----------|--------------|--------------|
A|-----------|--------------|--------------|
E|-----------|--------------|--------------|


   +H.            e Q   Q.       W
e|-(3)----------|-4------------|---------|
B|-(4)----------|-5------------|---------|
G|-(3)----------|-4------------|---------|
D|-(0)----------|--------------|---------|
A|--------------|--------------|---------|
E|--------------|--------------|---------|
|
 |  Q.   +Q   E   e   Q    Q.        W
e|--3----(3)----|-4------------|---------|
B|------------4-|--------------|---------|
G|--------------|--------------|---------|
D|--------------|--------------|---------|
A|--------------|--------------|---------|
E|--------------|--------------|---------|


   Gtr II
   <                            >
   H.      +H.         E  E  E  E  E  E    E  E  E  E  E  E
e|-4-------(4)------|-12-12-12-12-12-12-|-12-12-12-12-12-12-|
B|-4-------(4)------|-------------------|-------------------|
G|-2-------(2)------|-------------------|-------------------|
D|------------------|-------------------|-------------------|
A|------------------|-------------------|-------------------|
E|------------------|-------------------|-------------------|


    <
    E  E  E  E  E  E    E  E  E  e  e  e
e|-12-12-12-12-12-12-|-12-12-12-12-12-12--|
B|-------------------|--------------------|
G|-------------------|--------------------|
D|-------------------|--------------------|
A|-------------------|--------------------|
E|-------------------|--------------------|


   Gtr I
    <
    e  e  e  e  e  e    e  e  e  e  e  e    e  e  e  e  e  e
e|-11-11-11-11-11-11-|-11-11-11-11-11-11-|-11-11-11-11-11-11-|
B|-------------------|-------------------|-------------------|
G|-------------------|-------------------|-------------------|
D|-------------------|-------------------|-------------------|
A|-------------------|-------------------|-------------------|
E|-------------------|-------------------|-------------------|
|
 | Gtr II
 |  W                   W                   W
e|-------------------|-------------------|-------------------|
B|-------------------|-------------------|-------------------|
G|-------------------|-------------------|-------------------|
D|-------------------|-------------------|-------------------|
A|-------------------|-------------------|-------------------|
E|-------------------|-------------------|-------------------|


    e   e  E  E  Q    Q.     Q.     Q.    Q.    Q.     e    Q
e|-11--11-11-11-11S=|=3------3S==|=10----10S==|=3-------------------|
B|------------------|------------|------------|--------3------------|
G|------------------|------------|------------|-------------5b5.5---|
D|------------------|------------|------------|---------------------|
A|------------------|------------|------------|---------------------|
E|------------------|------------|------------|---------------------|
|
 |  Q.     Q.            Q.  Q.     Q.    Q.       Q.    Q.
e|--------11S=======|====3---3S==|=10----10S==|====3-----3----------|
B|------------------|------------|------------|---------------------|
G|------------------|------------|------------|---------------------|
D|------------------|------------|------------|---------------------|
A|------------------|------------|------------|---------------------|
E|------------------|------------|------------|---------------------|


    Q     E   E E S S   E  E E +E  E E
e|----------------4s5-|-5--------------|
B|--3-----3-----4-----|----5-----------|
G|--5pb6==5r=(5)------|----------------|
D|--------------------|------7-(7)-7-7-|
A|--------------------|----------------|
E|--------------------|----------------|
|
 |  Q.        Q.        Q.      Q    E
e|-10--------10S======|=5-------5------|
B|--------------------|--------------5-|
G|--------------------|----------------|
D|--------------------|----------------|
A|--------------------|----------------|
E|--------------------|----------------|


    E  E    E E  E  E   +E  E E +E  E E   E E E E E E
e|--------------------|-----------------|-----5-------|
B|--------------------|-----------------|---------0---|
G|------------------5-|-(5)-5-------5-5-|-5-----x-0---|
D|--7--7----7-7-----5-|-(5)-5-7-(7)-----|---7---------|
A|--------------------|-----------------|-------------|
E|--------------------|-----------------|-----------0-|
|
 | +E  Q    S S +E  E   +Q.     +E  Q     Q   E E E E
e|--------------------|-----------------|-------------|
B|-(5)----------------|-----------------|-------------|
G|-----7b8==7r7-(7)-5-|-(5)-----(5)-----|-------------|
D|--------------------|-------------7---|-5-----------|
A|--------------------|-----------------|-----7-6-5-6-|
E|--------------------|-----------------|-------------|


   H.             +Q.   E E E    Q.     Q  E    Q   E E E E
e|--------------|-------------|--------------|---------------|
B|-9------------|-(9)---9-9-9-|--9------9----|--9---9-9-9-9--|
G|-9------------|-(9)---9-9-9-|--9------9----|--9---9-9-9-9--|
D|-9------------|-(9)---9-9-9-|--9------9----|--9---9-9-9-9--|
A|-7------------|-(7)---7-7-7-|--7------7----|--7---7-7-7-7--|
E|-0------------|-(0)---0-0-0-|--0------0--0-|--0---0-0-0-0--|
|
 | E E E +Q   E   +Q.   E E E   +Q. E Q        +H.
e|--------------|-------------|--------------|---------------|
B|--------------|-------------|--------------|---------------|
G|--------------|-------9-7---|--------------|---------------|
D|------------9-|-(9)-------9-|-(9)---9------|-(9)-----------|
A|-6s7-7-(7)----|-------------|-----7--------|---------------|
E|--------------|-------------|--------------|---------------|


   E E E +E  E E   Q   E E E  E   E  E E E E E   Q.      Q   e
e|---------------|--------------|--------------|--------15\--3--|
B|-9s8-8-(8)-8---|-8---8-8-8--8-|-8--8-8-8-8-8-|-8-----------3--|
G|-9s8-8-(8)-8---|-8---8-8-8--8-|-8--8-8-8-8-8-|-8--------------|
D|-9s8-8-(8)-8---|-8---8-8-8--8-|-8--8-8-8-8-8-|-8--------------|
A|-7s6-6-(6)-6-6-|-6---6-6-6--6-|-6--6-6-6-6-6-|-6--------------|
E|---------------|--------------|--------------|----------------|
|
 | E E E +Q    E   Q.  Q   E      Q.   Q     E   E  E E  Q   E
e|---------------|--------------|--------------|-------------3--|
B|---------------|--------------|--------------|----------------|
G|---------------|---------8\---|--------------|----------------|
D|-------------8-|-8---8--------|--------------|----8-8--8\-----|
A|-7s6-6-(6)-----|--------------|------------6-|-6--------------|
E|---------------|--------------|--------------|----------------|


    E  e e  E  E    E   a E    E E E    e  e    e e e e e e   e E E E E E
e|--------------------|-----------------------|-----------5-|---6-5---6-5-|
B|-----3--------------|-----------------------|-------------|-----------5-|
G|-------5--5--5b6==5-|-5r5----3--------7--7--|-7-7-7-7-7---|-x-----x-----|
D|--------------------|----------5------5--5--|-5-5-5-5-5---|-x-5---x-5---|
A|--------------------|-----------------------|-------------|-------------|
E|--------------------|-----------------------|-------------|-------------|
|
 | +Q    E +Q       E     E    E E S E.   +E    Q   E E E E   E Q   Q   E
e|-(3)----------------|-----------------------|-------------|-3-----3-----|
B|-------3-(3)--------|-----------------------|-------------|---3---3---5-|
G|------------------4-|---4b5==4-4-4r4----(4)-|-3-------4-4-|-------4---6-|
D|--------------------|-----------------------|-----4-4-----|-------------|
A|--------------------|-----------------------|-------------|-------------|
E|--------------------|-----------------------|-------------|-------------|


                         <
                                       TP               TP
   E E E  E  E E   E E E S S S S S S   H.               Q.      S  S S S S S
e|---5-----------|-------------------|----------------|----------------------|
B|---5-5-----5---|-5-----------------|----------------|----------------------|
G|-6-6-----------|-6-----------------|----------------|----------------------|
D|-7------7----7-|-7-7-7-7-7-7-7-7-7-|-7--------------|-7-------7--7-7-7-----|
A|-7-------------|-------------------|----------------|--------------0-0S7-7-|
E|-5-------------|-------------------|----------------|------------------0-0-|
|
 | E E E +E  E E   Q   E Q       E     E    E E E E E   E  E E +Q.
e|-5-5-5-(5)---5-|-----5---------5---|-8b9==8-8-8-8-8-|-8--8r8-(8)-----------|
B|-5-5-5-(5)-5---|-8-----8-----------|----------------|----------------------|
G|-6-6-6-(6)-----|-------------------|----------------|----------------------|
D|---------------|-------------------|----------------|----------------------|
A|---------------|-------------------|----------------|----------------------|
E|---------------|-------------------|----------------|----------------------|


      TP TP            TP TP  TP   TP  TPTPTPTP  TP
   E  Q  Q  S S   S  S Q  Q   E    Q   E E E E   Q.   Q   E
e|--------------|---------------|--------------|------------|
B|--------------|---------------|--------------|------------|
G|----9---------|---------9--10-|-11---9-7-----|------------|
D|-9--9--9------|-7--7-9--------|----------9-7-|-9----9S=12-|
A|-7--7-----0-0-|---------------|--------------|----------0-|
E|-0------------|---------------|--------------|------------|
|
 | Q.    Q  E     H.               Q.    Q   E   H.
e|--------------|---------------|--------------|------------|
B|--------------|---------------|--------------|------------|
G|-------9--7---|-7-------------|--------9---7-|-7----------|
D|--------------|---------------|--------------|------------|
A|-7------------|---------------|--7-----------|------------|
E|--------------|---------------|--------------|------------|


    TP   TP TP  TP   TP
    Q    E  E   E    E     E     E     E  E     E       E
e|-11---14-14--11-------|------------------------------11--|
B|-11---14-14--11---11--|-11b12-11b13-11-11b12-11b13---11--|
G|------------------13--|-13b14-13b15-13-13b14-13b15---13--|
D|----------------------|----------------------------------|
A|----------------------|----------------------------------|
E|----------------------|----------------------------------|
|
 |  Q.      E.    S +E    +Q.             E.         S +E
e|----------------------|----------------------------------|
B|----------------------|----------------------------------|
G|----------8-----6-(6)-|-(6)-------------8----------8-(8)-|
D|----------------------|----------------------------------|
A|--6-------------------|----------------------------------|
E|----------------------|----------------------------------|


    E     E  E  E     E      E    S  S  E E  S S  S   S E
e|-------11----------11b13-----|-11-11----0---------------|
B|-11b13-11-11-11b12-11b13-----|-11-11----0-------------3-|
G|-13b15----13-13b14-13b15--13-|-------------0-0--x---0-4-|
D|-----------------------------|-------------0-0--x---0-5-|
A|-----------------------------|--------0---------------5-|
E|-----------------------------|------------------------3-|
|
 |  Q.       Q        E           E     E    E    Q.
e|-----------------------------|--------------------------|
B|-------------------10b11=====|=10----10---10---10r\-----|
G|-----------------------------|--------------------------|
D|-----------------------------|--------------------------|
A|-----------------------------|--------------------------|
E|-----------------------------|--------------------------|


   Q.     E E E   E E E E E E   Q   E +Q.       +Q.     E E E
e|-3------------|-------3-3-3-|-3-------------|-----------------|
B|-3------------|-------------|-----3-(3)-----|-(3)-------------|
G|-4------------|-------------|---------------|-----------------|
D|-5------5-5-5-|-5-5-5-------|---------------|---------5-5-5s==|
A|-5------5-5-5-|-5-5-5-------|---------------|-----------------|
E|-3------3-3-3-|-3-3-3-------|---------------|-----------------|
|
 | E  E E E E E   E E E E E E   E E E  E  E E    E  E E E E E
e|--------------|-------------|---------------|-----------------|
B|--------------|-------------|---------------|-----------------|
G|--------------|-------------|---------------|-----------------|
D|--------------|-------------|---------------|-----------------|
A|--------------|-------------|---------------|-----------------|
E|-3--3-3-3-3-3-|-3-3-3-3-3-3-|-3-3-3--3--3-3-|--3--3-3-4-4-4---|


   Q   E E Q     Q   E +E  Q     E Q   +Q    E   E E E Q.
e|-------------|-----5-(5)-----|---5---(5)---5-|----------------|
B|-------------|-5---------6---|-5-------------|-5--------------|
G|-----5-5-6---|---------------|---------------|---6-6-6--------|
D|-7-----------|---------------|---------------|----------------|
A|-------------|---------------|---------------|----------------|
E|-------------|---------------|---------------|----------------|
|
 | e e e e e e   e e e  e  e e   e e e  e  e e   e e e e  e S S
e|-------------|---------------|---------------|----------------|
B|-------------|---------------|---------------|----------------|
G|-------------|---------------|---------------|----------------|
D|-------------|---------------|---------------|----------------|
A|-------------|---------------|---------------|----------------|
E|-5-5-5-5-5-5-|-5-5-5--5--5-5-|-5-5-5--5--5-5-|-5-5-5-5--5-0-0-|


   E  E E +Q.       +Q    E Q   E   +Q    E E E E    Q   E Q  E
e|----------------|---------------|---------------|--4-----------|
B|----------------|-------5-5-----|-------5-5---5-|------5-6--6--|
G|----4-4-(4)-----|-(4)---------4-|-(4)-------4---|--------------|
D|----------------|---------------|---------------|--------------|
A|----------------|---------------|---------------|--------------|
E|----------------|---------------|---------------|--------------|
|
 | e  Q    E  e e    e  e e e e e    e  e e E E E   +H.
e|----------------|---------------|---------------|--------------|
B|----------------|---------------|---------------|--------------|
G|------------9-9-|--9--9-9-9-9-9-|--9--9-9-------|--------------|
D|------------9-9-|--9--9-9-9-9-9-|--9--9-9-------|--------------|
A|---/7----7--7-7-|--7--7-7-7-7-7-|--7--7-7---7-5-|-(5)----------|
E|-0--------------|---------------|---------0-----|--------------|


   E E E E E E   +E  E E +E  E E   +E  E E E E E   E  E E E  E S S
e|-------------|-----------------|-------------3-|-3----3-3----x-x-|
B|-6s5-5s4-4---|-------------4-4-|-(4)-4-4-4-4-4-|----4-4-4----x-x-|
G|-----------3-|-(3)-3-3-(3)-3-3-|-(3)-3-3-3-3-3-|-----------------|
D|-------------|-----------------|---------------|-----------------|
A|-------------|-----------------|---------------|-----------------|
E|-------------|-----------------|---------------|-----------------|
|
 | E Q   Q   E    H.                Q    E Q   E   Q.     Q.
e|-------------|-----------------|---------------|-----------------|
B|-------------|-----------------|---------------|-----------------|
G|-------8---6-|--6--------------|---------8---6-|-6---------------|
D|---8---------|-----------------|-------8-------|--------8--------|
A|-6-----------|-----------------|--6------------|-----------------|
E|-------------|-----------------|---------------|-----------------|


   H.           +E  E E E E E   E E E Q   E   +Q   E Q  E
e|-3----------|-(3)-----------|---3---3---3-|-(3)----------|
B|-3----------|-(3)-----------|---3---3---3-|-(3)----------|
G|-4----------|-(4)-4---------|---4---4---4-|-(4)----------|
D|-5----------|-(5)---5-5-----|-------------|--------6--6--|
A|-5----------|-(5)-------5-5-|-5-----------|------5-6--6--|
E|-3----------|-(3)-------3-3-|-3---3-------|------3-4--4--|
|
 | Q  E Q E     +H.             Q E E E E     +H.
e|------------|---------------|-------------|--------------|
B|------------|---------------|-------------|--------------|
G|------------|---------------|-------------|--------------|
D|------5-3---|-(3)-----------|-------5-3---|-(3)----------|
A|----5-------|---------------|---5-5-------|--------------|
E|-3----------|---------------|-3-----------|--------------|


   E E E E e e    e   e  e e e e
e|-------------|-----------------|
B|-------------|-----------------|
G|---------6-6-|--6---6--6-6-6-6-|
D|---------7-7-|--7---7--7-7-7-7-|
A|---------7-7-|--7---7--7-7-7-7-|
E|-5-5-5-5-5-5-|--5---5--5-5-5-5-|
|
 | Q   E   Q E   +Q. +Q      E
e|-------------|-----------------|
B|-------------|-----------------|
G|-------------|-----------------|
D|---------7-5-|-(5)-(5)-----7---|
A|-----7-------|-----------------|
E|-5-----------|-----------------|


   e e e   e s s e       e    e    e    E    S S E
e|-----------------|-------------------------------|
B|-----------------|-------------------------------|
G|-6-6-6---6-6-6-6-|-----6----6----6----6----6-6---|
D|-7-7-7---7-7-7-7-|-----7----7----7----7----7-7---|
A|-7-7-7---7-7-7-7-|-----7----7----7----7----7-7---|
E|-5-5-5---5-5-5-5-|-----5----5----5----5----5-5-0-|
|
 | Q E Q.            +Q  E    E    E    E
e|-----------------|-------------------------------|
B|-----------------|----------5----5----5----------|
G|-5-7-7b8---------|-(7)-7pb9-7pb9-7pb9-7pb9-------|
D|-----------------|-------------------------------|
A|-----------------|-------------------------------|
E|-----------------|-------------------------------|


   Q     E Q  E   Q   E Q  E   e S S S S e S S S S   e  S  S   S  S  q  E
e|-0-----0-0--0-|-0---0-0--0-|-0-0-0-0-0-0-0-0-0-0-|-0--0--0---0--0--0----|
B|-0-----0-0--0-|-0---0-0--0-|-0-0-0-0-0-0-0-0-0-0-|-0--0--0---0--0--0----|
G|-1-----1-1--1-|-1---1-1--1-|-1-1-1-1-1-1-1-1-1-1-|-1--1--1---1--1--1----|
D|-2-----2-2--2-|-2---2-2--2-|-2-2-2-2-2-2-2-2-2-2-|-2--2--2---2--2--2----|
A|-2-----2-2--2-|-2---2-2--2-|-2-2-2-2-2-2-2-2-2-2-|-2--2--2---2--2--2----|
E|-0-----0-0--0-|-0---0-0--0-|-0-0-0-0-0-0-0-0-0-0-|-0--0--0---0--0--0S10-|
|
 | Q     E Q  E   Q   E Q  E   e e   e   e e   e     E  E  E   E  E  S  S
e|--------------|------------|---------------------|---------/18-18-18-18-|
B|-5----------5-|-5---5-5--5-|-5-5---5---5-5---5---|-5S15\----------------|
G|-7b9===7-7----|-7r---------|---------------------|----------------------|
D|--------------|------------|---------------------|----------------------|
A|--------------|------------|---------------------|----------------------|
E|--------------|------------|---------------------|----------------------|


    H.              E  Q      Q.      E   E E E  E E
e|---------------|------------------|-3-------3------|
B|---------------|------------------|-3-------3------|
G|---------------|-12-12------------|-4-------4------|
D|---------------|-13-13------------|-5-------5------|
A|---------------|-13-13------------|-5-------5------|
E|-11------------|-11-11-----13\----|-3---3-3-3--3-3-|
|
 |  E  E E E  q     e  E  E  +Q   E   E   E E Q.
e|-18\---3---18S=|==3----18-(18)S=3-|-3b4-3-5-3------|
B|---------------|------------------|----------------|
G|---------------|------------------|----------------|
D|---------------|------------------|----------------|
A|---------------|------------------|----------------|
E|---------------|------------------|----------------|


   E E E E E E   E  E E E E E   E E E E E E
e|-3-----3-----|-3------3-----|-------------|
B|-3-----3-----|-3------3-----|-------------|
G|-4-----4-----|-4------4-----|-------------|
D|-5-----5-----|-5------5-----|-5-----------|
A|-5-----5-----|-5------5-----|-5-----------|
E|-3-3-3-3-3-3-|-3--3-3-3-3-3-|-3-3-3-4-4s8-|
|
 |       W       Q.   E E E     E E E E E E
e|-------------|--------5-----|-5---5---5-5-|
B|-------------|------8---8---|---8---8-----|
G|-------------|--------------|-------------|
D|-------------|--------------|-------------|
A|-------------|--------------|-------------|
E|-------------|--------------|-------------|


    E  E  E E E E   E E E E E E   E E E E E E   E E E Q.
e|--9--9--9-8-8-8-|-7-7-7-6-6-6-|-5-5-5---4---|---3---2/--------|
B|-10-10-10-9-9-9-|-8-8-8-7-7-7-|-6-6-6-----5-|-------3/--------|
G|--9--9--9-8-8-8-|-7-7-7-6-6-6-|-5-5-5-4-----|-3-----2/--------|
D|----------------|-------------|-------------|-----------------|
A|----------------|-------------|-------------|-----------------|
E|----------------|-------------|-------------|-----------------|
|
 |  E  E  E E E E   E E E E E E   E E E E E E   E E e Q   S  S
e|--5s=9--9-9s8-8-|-8s7-7-6-6-6-|-6s5-5-5s4-4-|---3---2S=17-17--|
B|----------------|-------------|-------------|-4---4-3/--------|
G|----------------|-------------|-------------|-----------------|
D|----------------|-------------|-------------|-----------------|
A|----------------|-------------|-------------|-----------------|
E|----------------|-------------|-------------|-----------------|


    E  E  E  E  E  E    E  E  E  E  E  E
e|--9--9--9--8--8--8-|--7--7--7--6--6--6-|
B|-10-10-10--9--9--9-|--8--8--8--7--7--7-|
G|--9--9--9--8--8--8-|--7--7--7--6--6--6-|
D|-------------------|-------------------|
A|-------------------|-------------------|
E|-------------------|-------------------|
|
 |  E  E  E  E  E  E    E  E  E  E  E  E
e|-17-17-17-16-16-16-|-15-15-15-14-14-14-|
B|-------------------|-15-15-15-14-14-14-|
G|-------------------|-------------------|
D|-------------------|-------------------|
A|-------------------|-------------------|
E|-------------------|-------------------|


    E  E  E  E  E  E    E  E  E  E  E  E
e|--5--5--5--4--4--4-|--3--3--3--2--2--2--|
B|--6--6--6--5--5--5-|--4--4--4--3--3--3--|
G|--5--5--5--4--4--4-|--3--3--3--2--2--2--|
D|-------------------|--------------------|
A|-------------------|--------------------|
E|-------------------|--------------------|
|
 |  E  E  E  E  E  E    E  E  E  E  E  E
e|-13-13-13-12-12-12-|-11-11-11----10-10--|
B|-13-13-13-12-12-12-|-11-11-11-10--------|
G|-------------------|--------------------|
D|-------------------|--------------------|
A|-------------------|--------------------|
E|-------------------|--------------------|


     Q.   E  E E   E  E E Q.     Q.   E  E E
e||--2----2--2-2-|-2--2-2-2----|-1----1--1-1-|
B||o-3----3--3-3-|-3--3-3-3----|-3----3--3-3-|
G||--2----2--2-2-|-2--2-2-2----|-2----2--2-2-|
D||--0----0--0-0-|-0--0-0-0----|-0----0--0-0-|
A||o-------------|-------------|-------------|
E||--------------|-------------|-------------|
|
 |   Q.   Q.       Q.     Q.     Q.   Q.
e||--2-----------|-2------2----|-1-----------|
B||o-3----3------|-3------3----|-3-----------|
G||--2-----------|-2------2----|-2----2------|
D||--------------|-------------|-0-----------|
A||o-------------|-------------|-------------|
E||--------------|-------------|-------------|


   E  E E E  E E  4x H.      +H.
e|-1--1-1-1--1-1--||-2-------(2)----*|
B|-3--3-3-3--3-3-o||-3-------(3)----*|
G|-2--2-2-2--2-2--||-2-------(2)----*|
D|-0--0-0-0--0-0--||-0-------(0)----*|
A|---------------o||----------------*|
E|----------------||----------------*|
|
 | Q.     Q.      4x H.      +H.
e|--------1-------||-2-------(2)----*|
B|-3-------------o||-3-------(3)----*|
G|----------------||-2-------(2)----*|
D|----------------||-0-------(0)----*|
A|---------------o||----------------*|
E|----------------||----------------*|



Duration Legend
---------------
W - whole; H - half; Q - quarter; E - 8th; S - 16th; T - 32nd; X - 64th; a - acciaccatura
+ - note tied to previous; . - note dotted; .. - note double dotted
Uncapitalized letters represent notes that are staccato (1/2 duration)
Irregular groupings are notated above the duration line
Duration letters will always appear directly above the note/fret number it represents the
duration for.  Duration letters with no fret number below them represent rests.  Multi-
bar rests are notated in the form Wxn, where n is the number of bars to rest for.  Low
melody durations appear below the staff


************************************

| x    Dead note
| (n)  Ghost note
| b    Bend
| \    Slide down
| /    Slide up
| >    Accented note
| pb   Pre-bend
| r    Release
| tp   Tremolo picking
| s    Slap
| *    Natural harmonic

************************************

Misc Legend
-----------
 |  - bar
||  - double bar
||o - repeat start
o|| - repeat end
*|  - double bar (ending)
 :  - bar (freetime)
 $  - Segno
 &  - Coda
Tempo markers -  = BPM(8/16=s8/s16), where s8 = swing 8ths, s16 = swing 16ths
Suggest correction
comments
print report bad tab
2 comments total.
0 reply
scottkeesee 10 Mar 05, 2013 04:28 PM

great Job !!! Thanks

0 reply
teleman56678 10 May 21, 2013 06:27 PM

What an amazing tab thank you for posting it

guest
You may want to rate the tab now too:
select rating
Wanna post a correction for this tab? Suggest correction