Oops, an error
Loading. Please wait.

Bike Tab

version 1
version 1

Whole song

Interactive

30,405 views 27 this week
7 commentsread comments
1 2 3 4 5
x 29
add to favorites
launch autoscroll
font size
0
reset
how to read this tab
guitar tuner
Autoscroll
slow
fast
+/-
esc
set tempo
stop
Help us to improve Ultimate-Guitar.com Take our survey!
×
Author
Title: Bike
Artist: Pink Floyd
Tabb BY: Daniel "Arnni" Greenwood
comments: These lyrics are great, syd must of taken some weird shit to come up with these lyrics. 
The Chords work very well with this tune
Standard Tuneing!

verse 1
     G                      C

e|---3-----------------------8--------------------------|
B|---3-----------------------8--------------------------|
G|---4-----------------------9--------------------------|
D|---5----------------------10--------------------------|
A|---5----------------------10--------------------------|
E|---3-----------------------8--------------------------|

   I've got a bike  You can ride it if you like

     C                                               G
e|---8-----------------------------------------------3-----------|
B|---8-----------------------------------------------3-----------|
G|---9-----------------------------------------------4-----------|
D|---10----------------------------------------------5-----------|
A|---10----------------------------------------------5-----------|
E|---8-----------------------------------------------3-----------|


  It's got a basket, a bell that rings and things to make it look good.

      D                                              G
e|---10----------------------------------------------3-----------|
B|---10----------------------------------------------3-----------|
G|---11----------------------------------------------4-----------|
D|---12----------------------------------------------5-----------|
A|---12----------------------------------------------5-----------|
E|---10----------------------------------------------3-----------|


  I'd give it to you if I could,    but I borrowed it.

Chorus

Let D Chord Ring

e|---10----------------------------------------------------------|
B|---10----------------------------------------------------------|
G|---11----------------------------------------------------------|
D|---12----------------------------------------------------------|
A|---12----------------------------------------------------------|
E|---10----------------------------------------------------------|

You're the kind of girl that fits in with my world.


I'll give you anything, everything if want things.

Verse 2

e|---3-----------------------8--------------------------|
B|---3-----------------------8--------------------------|
G|---4-----------------------9--------------------------|
D|---5----------------------10--------------------------|
A|---5----------------------10--------------------------|
E|---3-----------------------8--------------------------|

  I've got a cloak. It's a bit of a joke.

     C                                               G
e|---8-----------------------------------------------3-----------|
B|---8-----------------------------------------------3-----------|
G|---9-----------------------------------------------4-----------|
D|---10----------------------------------------------5-----------|
A|---10----------------------------------------------5-----------|
E|---8-----------------------------------------------3-----------|


 There's a tear up the front. It's red and black. I've had it for months.


      D                                              G
e|---10----------------------------------------------3-----------|
B|---10----------------------------------------------3-----------|
G|---11----------------------------------------------4-----------|
D|---12----------------------------------------------5-----------|
A|---12----------------------------------------------5-----------|
E|---10----------------------------------------------3-----------|


  If you think it could look good, then I guess it should.



Let D Chord Ring

e|---10----------------------------------------------------------|
B|---10----------------------------------------------------------|
G|---11----------------------------------------------------------|
D|---12----------------------------------------------------------|
A|---12----------------------------------------------------------|
E|---10----------------------------------------------------------|

You're the kind of girl that fits in with my world.


I'll give you anything, everything if want things.

Verse 3

    G                      C

e|---3-----------------------8--------------------------|
B|---3-----------------------8--------------------------|
G|---4-----------------------9--------------------------|
D|---5----------------------10--------------------------|
A|---5----------------------10--------------------------|
E|---3-----------------------8--------------------------|

  I know a mouse, and he hasn't got a house.

     C                                               G
e|---8-----------------------------------------------3-----------|
B|---8-----------------------------------------------3-----------|
G|---9-----------------------------------------------4-----------|
D|---10----------------------------------------------5-----------|
A|---10----------------------------------------------5-----------|
E|---8-----------------------------------------------3-----------|


    I don't know why.    I   call   him        Gerald.

      D                                              G
e|---10----------------------------------------------3-----------|
B|---10----------------------------------------------3-----------|
G|---11----------------------------------------------4-----------|
D|---12----------------------------------------------5-----------|
A|---12----------------------------------------------5-----------|
E|---10----------------------------------------------3-----------|


     He's getting rather old, but he's a good   mouse.


Chorus

Let D Chord Ring

e|---10----------------------------------------------------------|
B|---10----------------------------------------------------------|
G|---11----------------------------------------------------------|
D|---12----------------------------------------------------------|
A|---12----------------------------------------------------------|
E|---10----------------------------------------------------------|

You're the kind of girl that fits in with my world.


I'll give you anything, everything if want things.

Verse 4

    G                      C

e|---3-----------------------8--------------------------|
B|---3-----------------------8--------------------------|
G|---4-----------------------9--------------------------|
D|---5----------------------10--------------------------|
A|---5----------------------10--------------------------|
E|---3-----------------------8--------------------------|
   
     I've got a clan of gingerbread men.

     C                                               G
e|---8-----------------------------------------------3-----------|
B|---8-----------------------------------------------3-----------|
G|---9-----------------------------------------------4-----------|
D|---10----------------------------------------------5-----------|
A|---10----------------------------------------------5-----------|
E|---8-----------------------------------------------3-----------|


    Here a man, there a man,   lots of gingerbread men

      D                                              G
e|---10----------------------------------------------3-----------|
B|---10----------------------------------------------3-----------|
G|---11----------------------------------------------4-----------|
D|---12----------------------------------------------5-----------|
A|---12----------------------------------------------5-----------|
E|---10----------------------------------------------3-----------|


     Take a couple if you wish.    They're on the dish.



Chorus

Let D Chord Ring

e|---10----------------------------------------------------------|
B|---10----------------------------------------------------------|
G|---11----------------------------------------------------------|
D|---12----------------------------------------------------------|
A|---12----------------------------------------------------------|
E|---10----------------------------------------------------------|

You're the kind of girl that fits in with my world.


I'll give you anything, everything if want things.


Verse 5/outro
    G                      C

e|---3-----------------------8--------------------------|
B|---3-----------------------8--------------------------|
G|---4-----------------------9--------------------------|
D|---5----------------------10--------------------------|
A|---5----------------------10--------------------------|
E|---3-----------------------8--------------------------|
   
    I know a room of musical tunes

     C                                               G
e|---8-----------------------------------------------3-----------|
B|---8-----------------------------------------------3-----------|
G|---9-----------------------------------------------4-----------|
D|---10----------------------------------------------5-----------|
A|---10----------------------------------------------5-----------|
E|---8-----------------------------------------------3-----------|


    Some rhyme, some ching. Most of them are clockwork.

      D                                              G
e|---10----------------------------------------------3-----------|
B|---10----------------------------------------------3-----------|
G|---11----------------------------------------------4-----------|
D|---12----------------------------------------------5-----------|
A|---12----------------------------------------------5-----------|
E|---10----------------------------------------------3-----------|


     Let's go into the other room and make them work.

Then weird outro with effects
I wished i could of tab that bit :P
please rate Pink floyd fans!
Suggest correction
comments
print report bad tab
7 comments total. Showing first comments.
0 reply
randy_roads 80 Dec 11, 2005 03:15 AM

bizare bizare bizare song. No wonder he' still insane...

+1 reply
septic squid 97 Jul 06, 2006 09:45 PM

this is my favorite pink floyd song

0 reply
vilhelm_nielsen 10 Jul 28, 2006 01:03 PM

This song is soooooo good. RIP Syd Barret.

guest
You may want to rate the tab now too:
select rating
Wanna post a correction for this tab? Suggest correction