Oops, an error
Loading. Please wait.

Brain Damage Tab

version 3
version 3

Whole song

Interactive

13,879 views 3 this week
3 commentsread comments
1 2 3 4 5
x 9
add to favorites
launch autoscroll
font size
0
reset
how to read this tab
guitar tuner
Autoscroll
slow
fast
+/-
esc
set tempo
stop
Help us to improve Ultimate-Guitar.com Take our survey!
×
Author
Transcribed by www.mikesguitarsite.co.uk
Words & Music by Roger Waters


Gtr I (E A D G B E) - 'Dave Gilmour - clean electric (2 gtrs arr. for one)'
Gtr II (E A D G B E) - 'Dave Gilmour - dist electric (Fills)'

For Fills see below main score all Fills palyed by Gtr II

Intro
    Q=132
   4/4
    Gtr I
    Q.   E +E  E Q    Q.   E E E Q    Q.   E +E  E Q    Q.   E E E Q
||--2----------2----|-2--------2----|-2----------2----|-2--------2-----||
||o-3----3-(3)------|-3----3--------|-3----3-(3)------|-3----3--------o||
||--2---------------|-2------2------|-2---------------|-2------2-------||
||--0------------0--|-0----------0--|-0------------0--|-0----------0---||
||o-----------------|---------------|-----------------|---------------o||
||------------------|---------------|-----------------|----------------||
                                                      |-w/Fill 1

   Verses
    $
    Q.   E +E  E Q    Q.   E E E Q    Q.   E +E  E Q    Q.   E E E Q
||--2----------2----|-2--------2----|-1----------1----|-1--------1----|
||o-3----3-(3)------|-3----3--------|-0----0-(0)------|-0----0--------|
||--2---------------|-2------2------|-0---------------|-0------0------|
||--0------------0--|-0----------0--|-0------------0--|-0----------0--|
||o-----------------|---------------|-----------------|---------------|
||------------------|---------------|-3---------------|-3-------------|
                                    |-w/Fill 1 1st & 3rd time
                                    |-w/Fill 4 2nd time

  Q.   E +E  E Q    Q.   E E E E E   Q.   E E E Q    Q.   E E E  Q
|-2----------2----|-2--------2-----|-1--------1----|-1--------1-------|
|-3----3-(3)------|-3----3---------|-0----0-0------|-0----0-----------|
|-2---------------|-2------2-----2-|-0-------------|-0------0---------|
|-0------------0--|-0----------0---|-0----------0--|-0----------(0)---|
|-----------------|----------------|---------------|------------------|
|-----------------|----------------|-3-------------|-3----------------|
                                   |-w/Fill 2

   Q  E E +E  E Q    Q.   E E E Q    Q.   E E E Q    Q.   E E E Q
|-^2----------2----|-2--------2----|-4--------4----|-4--------4-----|
|-^3----3-(3)------|-3----3--------|-5----5--------|-5----5---------|
|-^2---------------|-2------2------|-4------4------|-4------4-------|
|-^0--0---------0--|-0----------0--|-0----------0--|-0--------------|
|------------------|---------------|---------------|----------------|
|------------------|---------------|---------------|----------------|
                   |-w/Fill 3

                                                                         To Coda
                      PM
   Q  E E E Q.     Q  E E +E  Q  E   Q  E E E E E E   +E  E E E +E  E Q
|-^3-------------|-3---------------|-2--------2---0-|-(0)-----0-(0)--------||
|-^2--------2----|-2----------2----|-3----3---------|-----3---------3-----o||
|-^2----2-2------|-2----2-(2)------|-2------2-------|----------------------||
|-^2-------------|-2---------------|-0--0-------0---|-------0---------0----||
|-^0--0----------|-0--0------------|----------------|---------------------o||
|----------------|-----------------|----------------|----------------------||
                                                    |-w/Fill 1 1st time

                                          Chorus
                                        Half Time Feel Q=66
  $$
   Q  E E +E  Q  E   +E  Q  E +E  E E E    Q  Q  Q  Q    Q  E E +E  Q.
|-^2--2-------2--0-|-(0)----0-(0)-2-----||-------------|------------------|
|-^1--1-1-(1)------|-----2--------------||-------0-----|------0-(0)-------|
|-^2--2------------|--------------------||----------0--|------------0-----|
|-^0---------------|--------------------||----0--------|----0-------------|
|------------------|--------------------||-------------|------------------|
|------------------|----------------0-2-||-3-----------|-3----------------|


  Q  Q  Q  E E   Q  E E +E  E Q    Q  Q  Q  Q    Q  E E +E  Q.
|--------------|-----------------|-------------|------------------|
|-------2------|------2-(2)------|-------1-----|------1-(1)-------|
|------------2-|------------2----|----------0--|------------0-----|
|----2-----x---|----2------------|----2--------|----2-------------|
|-0------------|-0---------------|-3-----------|-3----------------|
|--------------|-----------------|-------------|------------------|


  Q  Q  Q  Q    Q  E E +E  Q.     Q  Q  Q  Q    Q  E E +E  E Q
|-------------|-----------------|-------------|------------------|
|-------0-----|------0-(0)-0----|-------2-----|------2-(2)-------|
|----------0--|------------0----|----------2--|------------2-----|
|----0--------|----0------------|----2--------|----2-------------|
|-------------|-----------------|-0-----------|-0----------------|
|-3-----------|-3---------------|-------------|------------------|


  Q  Q  Q  Q    Q  E E +E  E Q    Q  E E Q  Q    Q  E E +E  Q.
|-------------|-----------------|--------------|------------------|
|-------2-----|------2-(2)------|--------1--1--|------1-(1)-------|
|----------2--|------------2----|------0-------|------------0-----|
|----2--------|----2------------|----2---------|----2-------------|
|-0-----------|-0---------------|-3------------|-3----------------|
|-------------|-----------------|--------------|------------------|


                                   To Dbl. Coda    D.S. al Coda
  Q  Q  Q  E E   Q  E E +E  E Q    Q  Q  Q  Q     Q  Q  Q  E E
|--------------|-----------------|-------------||----0----------||
|-------0------|------3-(3)------|-------0-----||-------2-------||
|--------------|----2-------2----|----------0--||----------0----||
|----0---------|-----------------|----2--------||---------------||
|----------0-1-|-2---------------|-------------||-0-------------||
|-3------------|-----------------|-0-----------||---------------||


  Q=132
  &
   Q  E E +E  E Q     Q  E E E E Q     Q  E E +E  E Q     Q  E E E E Q
|-^2----------2----|-^2--------2----|-^4----------4----|-^4--------4-----|
|-^3----3-(3)------|-^3----3--------|-^5----5-(5)------|-^5----5---------|
|-^2---------------|-^2------2------|-^4---------------|-^4------4-------|
|-^0--0---------0--|-^0--0-------0--|-^0--0---------0--|-----0-------0---|
|------------------|----------------|------------------|-----------------|
|------------------|----------------|------------------|-----------------|
                   |-w/Fill 3

                                                                     D.S.S. al Dbl. Coda
   Q  E E +E  Q.      Q.   E E E Q     Q.   E +E  E E E   +E  E E E +E  E Q
|-^3---------------|-^3-------------|-^2----2-(2)-----0-|-(0)-----0-(0)-------||
|-^2----------2----|-^2--------2----|-^3----------3-----|-----3---------3-----||
|-^2----2-(2)------|-^2----2-2------|-^2------------2---|-------2---------0---||
|-^2---------------|-^2-------------|-^0----------------|---------------------||
|-^0--0------------|-^0-------------|-------------------|---------------------||
|------------------|----------------|-------------------|---------------------||


 Outro
  &&
  Q  Q  Q  E E     Q.   E +E  E Q    Q.   E E E Q
|----0---------||--2----------2----|-2--------2----|
|-------2------||o-3----3-(3)------|------3--------|
|----------0---||--2---------------|--------2------|
|--------------||--0------------0--|------------0--|
|-0------------||o-----------------|---------------|
|--------------||------------------|---------------|


   Q.   E +E  E Q    Q.   E E E Q
|-^1----------1----|-1--------1-------||
|-^0----0-(0)------|------0----------o||
|-^0---------------|--------0---------||
|-^0------------0--|------------0-----||
|------------------|-----------------o||
|-^3---------------|------------------||


     Q.   E +E  E Q    Q.   E E E Q    Q.   E +E  E Q    Q.   E +E  E Q
||--^2----------2----|-2--------2----|-4----------4----|-4----------4----|
||o-^3----3-(3)------|------3--------|-5----5-(5)------|-5----5-(5)------|
||--^2---------------|--------2------|-4---------------|-4---------------|
||--^0------------0--|------------0--|-0------------0--|-----------------|
||o------------------|---------------|-----------------|-----------------|
||-------------------|---------------|-----------------|-----------------|


                         PM
   Q  E E +E  Q.      Q  E E +E  Q  E
|-^3---------------|-^3---------------|
|-^2----------2----|-^2----------2----|
|-^2----2-(2)------|-^2----2-(2)------|
|-^2---------------|------------------|
|-^0--0------------|-----0------------|
|------------------|------------------|


  Q  E E +E  E  e  E   E E e E +E  E Q
|-2----------2-----0-|-0-----0-(0)--------||
|-3----3-(3)---------|---3---------3-----o||
|-2------------(0)---|--------------------||
|-0--0----------0----|-----0---------0----||
|--------------------|-------------------o||
|--------------------|--------------------||
                     |-w/Fill 1 1st time

 Fill 1
  Gtr II
                             ~~
  H    E  E      +E   +E     W
|--------14b15==(15)r(14)-|-14----||
|-------------------------|-------||
|-------------------------|-------||
|-------------------------|-------||
|-------------------------|-------||
|-------------------------|-------||


 Fill 2
                             ~~
  H    E  E      +E.  +S     W
|--------19b20==(20)r(19)-|-19----||
|-------------------------|-------||
|-------------------------|-------||
|-------------------------|-------||
|-------------------------|-------||
|-------------------------|-------||


 Fill 3
                             ~~
  H    E  E      +E.  +S     W
|--------16b17==(17)r(16)-|-16----||
|-------------------------|-------||
|-------------------------|-------||
|-------------------------|-------||
|-------------------------|-------||
|-------------------------|-------||


 Fill 4
                         ~~
  H    E   E      +Q     W
|---------------------|-------||
|---------18pb20r(18)-|-18----||
|---------------------|-------||
|---------------------|-------||
|---------------------|-------||
|---------------------|-------||
Suggest correction
comments
print report bad tab
3 comments total.
0 reply
Matt Montoya 2,122 Apr 19, 2006 08:02 PM

Good tab, but I would have liked to see the lyrics, that way I don't have do read the whole thing to find the particular part I'm looking for.

-2 reply
kittymadcow 52 Dec 16, 2008 08:42 AM

heads up matt it is kinda illegal to have lots of lyrics on this thing

0 reply
floyd-pinkerton 257 Feb 08, 2014 03:39 PM

I don't think its a great tab

guest
You may want to rate the tab now too:
select rating
Wanna post a correction for this tab? Suggest correction