Oops, an error
Loading. Please wait.

Breathe In The Air Bass Tab

40,317 views 84 this week
14 commentsread comments
1 2 3 4 5
accurate
x 26
add to favorites
launch autoscroll
font size
0
reset
guitar tuner
Autoscroll
slow
fast
+/-
esc
set tempo
stop
Help us to improve Ultimate-Guitar.com Take our survey!
×
Song - "Breathe in the air" (Words and Music - Roger Waters)
Artist - Pink Floyd
Off the album "Dark Side of the Moon"
Tabbed by Malcolm Wales (mw14@uow.edu.au)

G|----9--------9\---|----------------|
D|------------------|----------------|
A|7--------7-7------|0-------4---5-6-|
E|-------7----------|----------------|

G|----9-------9\---|-----------------|
D|-----------------|--------------7h9|
A|7-------7--------|0-------0-0------|
E|-----------------|-----------------|

G|----9-------7h9\--|----2-----------|
D|------------------|----------------|
A|7---------7-------|0--------x4-5-6-|
E|------------------|----------------|

G|----9--------9---|----2-----------|
D|-----------------|----------------|
A|7--------7-7-----|0--------x4-5-6-|
E|-------7---------|----------------|

G|----9---9---7-9--|----2-------------|
D|-----------------|-------------7/-9-|
A|7----------------|0--------0-0------|
E|-----------------|------------------|

G|----9----------9--|----2------------|
D|--------9---------|------------7\---|
A|7---------7--7----|0-------0-0----5-|
E|------------------|-----------------|

G|----9-------9\---|-----------------|
D|-----------------|----7--------7---|
A|7-------7-7------|0--------0-0---5-|
E|-----------------|-------0---------|

G|----9---------7h9-|-----------------|
D|------------9-----|----7---7-5------|
A|7-------7-7-------|0-----------7-5--|
E|------------------|-----------------|

G|----------------|-----2-h4-2-h4-2-----|
D|------------5---|-----------------4---|
A|3------x3-3---3-|2------------------2-|
E|----------------|---------------------|

G|-----------------|----------------|
D|3--------3-3---3-|5-----5---------|
A|-------3---------|--------5---6---|
E|-----------------|----------------|

G|----9--------9-7h9-|-----------------|
D|-------------------|7------7---------|
A|7--------7-7-------|---------0-4-5-6-|
E|-------7-----------|-----------------|

G|----9--------9-7h9-|--------------------|
D|-------------------|7------7--------7h9-|
A|7--------7-7-------|---------0--0-7-----|
E|-------------------|--------------------|

G|--------9-------|-----------------|
D|----------------|7----------------|
A|7------------7--|--------0---4-5--|
E|----------------|-----------------|

G|----9-------9\---|-----------------|
D|-----------------|7-----------7-5--|
A|7-------7--------|--------0--------|
E|-----------------|-----------------|

G|------------------|-----------------|
D|-------------5\---|-----------------|
A|3--------3-3------|2--------2-2-----|
E|-------3----------|-------2---------|

G|----------------|----------------|
D|----------------|----------------|
A|----------------|--------5---6---|
E|1------x1-1-----|3-----3---------|

G|----9------7h9----7h9-|-----------------|
D|---------9------9-----|7------7---------|
A|7---------------------|---------0-4-5-6-|
E|----------------------|-----------------|

G|----9-------9-7h9-|------------------|
D|------------------|7-----------------|
A|7-------7-7-------|--------0-4-5-5-6-|
E|------------------|------------------|

G|----9--------9\---|----------------|
D|------------------|7---------------|
A|7--------7-7------|--------0-4-5-6-|
E|-------7----------|----------------|

G|----9----9-7-------|----------------|
D|-------------9-----|----7---7-5-----|
A|7------7-------7\--|0-----------7-5-|
E|-------------------|----------------|

G|------------------|-----------------|
D|--------------5\--|-----------------|
A|3--------3-3------|2--------2-2-2-2-|
E|-------3----------|-------2---------|

G|-----------------|----------------|
D|-----------------|5-----5-0---1---|
A|-----------------|----------------|
E|1------x-1-1-----|----------------|

G|--------------------------------|
D|2-------------------------------|
A|--------------------------------|
E|--------------------------------|


************************************

| x  Dead note
| h  Hammer-on
| /  Slide up
| \  Slide down

************************************
Suggest correction
comments
print report bad tab
14 comments total. Showing first comments. show 1 bad comment
+3 reply
KoRnsBggestFan 10 wrote on March 11 2002, 12:00 am

Looks well complicated...

-2 reply
DrunKnight 10 wrote on November 29 2006, 06:46 pm

Not accurate at all

guest
You may want to rate the tab now too:
select rating
Wanna post a correction for this tab? Suggest correction