Oops, an error
Loading. Please wait.

Breathe Tab

version 1
version 1

Whole song

Interactive

230,057 views 798 this week
5 commentsread comments
1 2 3 4 5
x 34
add to favorites
launch autoscroll
font size
0
reset
how to read this tab
guitar tuner
Autoscroll
slow
fast
+/-
esc
set tempo
stop
Help us to improve Ultimate-Guitar.com Take our survey!
×
Author
Breathe - Pink Floyd (Dark Side of the Moon)

Top tab : Guitar I
Bottom tab : Guitar II or Keybord

(Chorus : chords->Guitar I
Tab->Guitar II or Keybord)


[Intro]

    Em                    A             Em               A
  e|---0---------------------------------0----------0-----------------------------------|
  B|----0---------0-----------2---3-2-----0-----------0--------2-----3-----2------------|
  G|-----0----------0----------------------0-----------------2---------------2----------|
  D|------2-----------------2---------------2--------------2-------2-----2--------------|
  A|-------2--------------0------------------2-----------0-------0-----0----------------|
  E|-0------0---0-----------------------0-----0---0-------------------------------------|

  e|-----------------------------12------------------------------12---------------------|
  B|--------------------------14-----12----------------------------14-------------------|
  G|-----------------------14---------------------------------14------------------------|
  D|------------------------------------------------------------------------------------|
  A|------------------------------------------------------------------------------------|
  E|--------------------9------------------------------9--------------------------------|

    Em                  A                   Em                  A
  e|---0----------0----------------------------0----------------------------------------|
  B|----0-----------0------2----3------2--------0--------0---------2---3-2--------------|
  G|-----0-------------------------------2-------0---------0----------------------------|
  D|------2--------------2-----------2------------2--------------2----------------------|
  A|-------2-----------0------0----0---------------2-----------0------------------------|
  E|-0------0--0-----------------------------0------0--0--------------------------------|

  e|--12~-----------------------------------12~-----------------------------------------|
  B|-----------12~b14~-------------------------------12~b14~----------------------------|
  G|------------------------------------------------------------------------------------|
  D|------------------------------------------------------------------------------------|
  A|------------------------------------------------------------------------------------|
  E|------------------------------------------------------------------------------------|

    Em                  A                    Em                 A
  e|---0-------------/5----7---5-3--------------0---------------------------------------|
  B|----0------0---------------------------------0-----0--------14------12-----10-------|
  G|-----0-------0--------------------------------0-----0-----------0------0------------|
  D|------2------------5/7---5---------------------2---------/14------12-----11---------|
  A|-------2----------------------------------------2-----------------------------------|
  E|-0------0---------------------------------0------0----------------------------------|

  e|--14~-------------10~b12~-----------------------------------------------------------|
  B|-------------------------------------------12~---------12~b14~----------------------|
  G|------------------------------------------------------------------------------------|
  D|------------------------------------------------------------------------------------|
  A|------------------------------------------------------------------------------------|
  E|------------------------------------------------------------------------------------|

    Em               A                  Em               A
  e|---0-------0---------------------------0--------------------------------------------|
  B|----0--------0-------2-3-2--------------0------0---------2---3-2--------------------|
  G|-----0---------------------2-------------0-------0----------------------------------|
  D|------2------------2----------------------2------------2----------------------------|
  A|-------2---------0-------------------------2---------0------------------------------|
  E|-0------0----------------------------0------0---------------------------------------|

  e|--14~--------10~b12~----------------------------------------------------------------|
  B|------------------------------------17\12~---------12~b14~--------------------------|
  G|------------------------------------------------------------------------------------|
  D|------------------------------------------------------------------------------------|
  A|------------------------------------------------------------------------------------|
  E|------------------------------------------------------------------------------------|

    Em       Bm         Em      G  F Eb Em
  e|-----0-------2------0---------------------------------------------------------------|
  B|------0-------3------1--------------------------------------------------------------|
  G|------------------------------------------------------------------------------------|
  D|------------------------------------------------------------------------------------|
  A|------------------------------------------------------------------------------------|
  E|-0-------2-------0------------------------------------------------------------------|

  e|-7~------7~------7~b8-7--5----------------------------------------------------------|
  B|-----------------------------8--6---------------------------------------------------|
  G|-----------------------------------8/9----------------------------------------------|
  D|------------------------------------------------------------------------------------|
  A|------------------------------------------------------------------------------------|
  E|------------------------------------------------------------------------------------|


[Verse I]

    Em             A              Em              A
  e|---0-------0---------------------0-------0------------------------------------------|
  B|----0-------0-------3--2----------0-------0-------2-3--2----------------------------|
  G|-----0-------------------2---------0---------------------2--------------------------|
  D|------2----------2------------------2-----------2-----------------------------------|
  A|-------2-------0---------------------2--------0-------------------------------------|
  E|-0------0----------------------0------0---------------------------------------------|

   |Breathe, breathe in the air.  Don't be afraid to care.

  e|---------------------------------12-------------------------------------------------|
  B|----------------------------------------12b14~--------------------------------------|
  G|------------------------------------------------------------------------------------|
  D|-----------------------------11~/14-------------------------------------------------|
  A|------------------------------------------------------------------------------------|
  E|--0~--------------------------------------------------------------------------------|


    Em             A                Em            A
  e|---0-------0-----------------------0-------0----------------------------------------|
  B|----0-------0-------2--3---2--------0-------0------2-3-2----------------------------|
  G|-----0------------------2----2-------0-------------------2--------------------------|
  D|------2----------2-------2------------2----------2----------------------------------|
  A|-------2-------0-----------------------2-------0------------------------------------|
  E|-0------0------------------------0------0-------------------------------------------|

   |Leave, but don't leave me.       Look around and choose your own ground.

  e|-12~--12-------------------------12~------------------------------------------------|
  B|----------12----------2/14-----------12b14~--------------------14\------------------|
  G|------------------------------------------------------------------------------------|
  D|------------------------------------------------------------------------------------|
  A|------------------------------------------------------------------------------------|
  E|------------------------------------------------------------------------------------|


[Chorus]

    Cmaj7                               Bm                              >Guitar I
  e|------------------------------------------------------------------------------------|
  B|--12~\-------------------------------\7~--------------------------------------------|
  G|------------------------------------------------------------------------------------|
  D|------------------------------------------------------------------------------------|
  A|------------------------------------------------------------------------------------|
  E|------------------------------------------------------------------------------------|
    Long you live and high you fly. And smiles you'll give and tears you'll cry

    Am                                  G                    F  Eb      >Guitar I
  e|------------------------------------------------------------------------------------|
  B|-----10~-----------------------------12~-----------------6---4------5---------------|
  G|------------------------------------------------------------------------------------|
  D|------------------------------------------------------------------------------------|
  A|------------------------------------------------------------------------------------|
  E|------------------------------------------------------------------------------------|
    And all you touch and all you see. Is all your life will ever be

   Verse II
    Em          A                  Em                      A
  e|-----0-------------------------------------------------5----7---5-3-----------------|
  B|-------0--------2-3-----2----------0------------------------------------------------|
  G|--------------------0-----0----------0------------------5/7---5---------------------|
  D|--------------2-------2-------------------------------------------------------------|
  A|------------0-----------------------------------------------------------------------|
  E|-0-----------------------------0----------------------------------------------------|
   |Run, rabbit run.              Dig that hole, forget the sun

  e|---------------------9~/21~----12~/22~----------------8b9~--------------------------|
  B|--5/17\5-17\5-----------------------------------------------------------------------|
  G|------------------------------------------------------------------------------------|
  D|------------------------------------------------------------------------------------|
  A|------------------------------------------------------------------------------------|
  E|------------------------------------------------------------------------------------|

    Em                          A               Em                  A
  e|---0---------------0-----------------------------0----------------------------------|
  B|----0---------------0----------2-3---2-------------0-----------------2--3--2--------|
  G|-----0----------------------------0---0--------------------------------------2------|
  D|------2-----------------------2----2-------------------------------2----------------|
  A|-------2--------------------0------------------------------------0------------------|
  E|-0------0-----------------------------------0---------------------------------------|
   |And when at last the work is done.          Don't sit down, it's time to dig another one

  e|---12~--------------------------------------12~-------------------------------------|
  B|--------12~b14~--------------------------------------12~b14~------------------------|
  G|------------------------------------------------------------------------------------|
  D|------------------------------------------------------------------------------------|
  A|------------------------------------------------------------------------------------|
  E|------------------------------------------------------------------------------------|


[Chorus]

    Cmaj                                Bm                              Guitar I
  e|------------------------------------------------------------------------------------|
  B|-12~\-------------------------------\7~---------------------------------------------|
  G|------------------------------------------------------------------------------------|
  D|------------------------------------------------------------------------------------|
  A|------------------------------------------------------------------------------------|
  E|------------------------------------------------------------------------------------|
    For Long you live and high you fly. But only if you ride the tide

    Am                                  G               F       Eb      Em Guitar I
  e|------------------------------------------------------------------------------------|
  B|--10~--------------------------------12-------------6-------4--------5--------------|
  G|------------------------------------------------------------------------------------|
  D|------------------------------------------------------------------------------------|
  A|------------------------------------------------------------------------------------|
  E|------------------------------------------------------------------------------------|
    And balanced on the biggest wave. You race towards an early grave


************************************

| b  Bend
| /  Slide up
| \  Slide down
| ~  Let ring

************************************
Suggest correction
comments
print report bad tab
5 comments total. Showing first comments.
+1 reply
stevey jay 103 Dec 04, 2009 08:29 AM

A small correction :
the chords F and Eb in the chorus are wrong
It should be D7#9 and D7b9
And the Am should be Fmaj7
My apologies

-1 reply
TheFloyd79 10 Apr 21, 2013 10:58 PM

Read this in science (science class sucks) and this is near perfect.

+1 reply
floyd-pinkerton 257 Mar 30, 2014 05:33 PM

this is amazing

guest
You may want to rate the tab now too:
select rating
Wanna post a correction for this tab? Suggest correction