Oops, an error
Loading. Please wait.

Breathe Tab

version 2
version 2

Whole song

Interactive

50,083 views 45 this week
no commentswrite comment
1 2 3 4 5
x 8
add to favorites
launch autoscroll
font size
0
reset
how to read this tab
guitar tuner
Autoscroll
slow
fast
+/-
esc
set tempo
stop
Help us to improve Ultimate-Guitar.com Take our survey!
×
BREATHE

"Dark Side of the Moon"


  Emadd9                        A                 Asus4 A    Emadd9
E--0----------|---------------|-------------|--------------|----0--------|
B--0----------|---------0-----|--------2----|------3---2-2-|-----0-------|
G--0----------|------------0--|------2------|------------2-|------0------|
D--4----------|---------------|----2--------|--------------|-------4-----|
A--2----------|---------------|-0-----------|---0----------|-------2-----|
E--0----------|-----0---------|-------------|--------------|-0-----0-----|

                   A           A7sus4  A7     Emadd9
E---------------|-----------|--------------|-12----------|-------------|
B---------0-----|--------2--|------3--2-2--|-12----------|-------12/---|
G------------0--|------2----|-----------2--|-------------|-------12/---|
D---------------|----2------|--------------|-slide gt----|-------------|
A---------------|-0---------|---0----------|-------------|-------------|
E----0----------|-----------|--------------|-------------|-------------|

  A           Asus4   A      Emadd9                     A       Asus4 A
E------------|--------------|-12---------|------12/---|/14-----|---------|
B-/14--------|--------------|-12---------|------12/---|/14-----|---------|
G-/14--------|--------------|------------|------------|--------|---------|
D------------|--------------|------------|------------|--------|---------|
A------------|--------------|------------|------------|--------|---------|
E------------|--------------|------------|------------|--------|---------|

  Emadd9                      A                        Emadd9
E-14----------|---------10/-|/12-------|--------------|----------|-------|
B-12----------|-----12/-----|/14-------|--------------|-12-------|---12/-|
G-12----------|-----12/-----|/14-------|--------------|-12-------|---12/-|
D-------------|-------------|----------|--------------|----------|-------|
A-(2 sl gts)--|-------------|----------|--------------|----------|-------|
E-------------|-------------|----------|--------------|----------|-------|

  A                        Emadd9                     A         Asus4 A
E-----------|-------------|-14---------|--------10--|-10/-12---|---------|
B-/14-------|-------------|-12---------|-----12/----|/14-------|---------|
G-/14-------|-------------|-12---------|-----12/----|/14-------|---------|
D-----------|-------------|------------|------------|----------|---------|
A-----------|-------------|------------|------------|----------|---------|
E-----------|-------------|------------|------------|----------|---------|

  Emadd9                   A     Asus4  A          Cmaj7
E-12---------|-----------|------------|-----------|----------|-----------|
B-12------12-|-------12/-|/14---------|-----------|-12-------|----/13\12-|
G------------|-------12/-|/14---------|-----------|----------|-----------|
D------------|-----------|------------|-----------|----------|-----------|
A------------|-----------|------------|-----------|----------|-----------|
E------------|-----------|------------|-----------|----------|-----------|

  Bm7                    Fmaj7                      G         D7#9  D7b9
E-----------|----------|--------------|-----------|----------|-----------|
B-12--------|----------|-12/13\----12-|-10--------|-8--------|-6----4----|
G-----------|----------|--------------|-----------|----------|-----------|
D-----------|----------|--------------|-----------|----------|-----------|
A-----------|----------|--------------|-----------|----------|-----------|
E-----------|----------|--------------|-----------|----------|-----------|

  Em7                             A       Asus4   A            Emadd9
E-----------|-------------------|--------------|--------------|-12-------|
B-/5--------|---------5\--------|\2------------|--------/26---|-12-------|
G-----------|-------------------|-2------------|--------/26---|-12-------|
D-----------|-------------------|--------------|--------------|----------|
A-----------|-------------------|--------------|--------------|----------|
E-----------|-------------------|--------------|--------------|----------|
  Breathe________ breathe in the air                                Don't

  Em7                A    Asus4     A       Emadd9
E------------------|-----------|----------|-12-----------|-12\---\7------|
B-------12/----/14-|-14--------|----------|-12-----------|-12\---\7------|
G-------12/----/14-|-14--------|----------|-12-----------|-12\---\7------|
D------------------|-----------|----------|--------------|---------------|
A------------------|-----------|----------|--------------|---------------|
E------------------|-----------|----------|--------------|---------------|
  be afraid to care_____                          Leave   but don't leave

  A          Asus4    A     Emadd9                             A    Asus4
E-----------|--------------|-12-----------|-------------------|----------|
B-2/----/14-|--------------|-12-----------|------12/---13/----|/14-------|
G-2/----/14-|--------------|-12-----------|------12/---13/----|/14-------|
D-2/----/14-|--------------|--------------|-------------------|----------|
A-----------|--------------|--------------|-------------------|----------|
E-----------|--------------|--------------|-------------------|----------|
  me                         Look around       choose your own ground

     A              Cmaj7
E-----------------|----------------------|-------------------|
B-12/14-----------|-12-------------------|------------12\--7-|
G-12/14-----------|-12-------------------|------------12\--7-|
D-----------------|----------------------|-------------------|
A-----------------|----------------------|-------------------|
E-----------------|----------------------|-------------------|
               For long you live and high you fly         and 

  Bm7                                                Fmaj7
E-----------------------------|--------------------|---------------------|
B-7---------------------------|--------------------|-10------------------|
G-7---------------------------|--------------------|-10------------------|
D-----------------------------|--------------------|-10------------------|
A-----------------------------|--------------------|---------------------|
E-----------------------------|--------------------|---------------------|
  smiles you'll give and tears you'll cry           All you touch and all

                       G                     D7#9    D7b9        Em7
E--------------------|---------------------|-------------------|---------|
B--------------------|-12------------------|-------------------|-12------|
G--------------------|-12------------------|-10------8---------|-12------|
D--------------------|-12------------------|-------------------|---------|
A--------------------|---------------------|-------------------|---------|
E--------------------|---------------------|-------------------|---------|
  you see          is all your life will ev-er be                   Run

                  A               A7sus4  A7      Em
E---------------|----------------|--------------|-12--------------/24-|
B-------12-12/--|/14-------------|/(26)---------|-12--------------/24-|
G-------12-12/--|/14-------------|/(26)---------|-12--------------/24-|
D---------------|----------------|--------------|---------------------|
A---------------|----------------|--------------|---------------------|
E---------------|----------------|--------------|---------------------|
        rabbit   run                              Dig that hole

                        A      A7sus4     A             Em7
E-24------------------|--------------|------------/12-|------------------|
B-24------------------|-12/14--------|-2---------2/12-|-12---------------|
G-24------------------|-12/14--------|-2---------2/12-|-12---------------|
D---------------------|--------------|-2---------2/---|------------------|
A---------------------|--------------|----------------|------------------|
E---------------------|--------------|----------------|------------------|
        forget the sun_____                                 When at last

                   A           A7sus4   A7       Em7
E----------------|------------|-----------------|-12---------------------|
B------12--12/13/|/14---------|-----------------|-12---------------------|
G------12--12/13/|/14---------|-----------------|-12---------------------|
D----------------|------------|-----------------|------------------------|
A----------------|------------|-----------------|------------------------|
E----------------|------------|-----------------|------------------------|
  the work is     done                           Don't sit down it's time

                   A      Asus4        A         Cmaj7
E----------------|-------------|---------------|------------------------|
B-------12-12/14-|-------------|-5/------------|/12---------------------|
G-------12-12/14-|-------------|-5/------------|/12---------------------|
D----------------|-------------|---------------|------------------------|
A----------------|-------------|---------------|------------------------|
E----------------|-------------|---------------|------------------------|
    to dig anoth - er one                   For long you live   and high

                   Bm7                                Fmaj7
E-----------------|----------------|---------7/------|-------------------|
B----------12\--7-|-7--------------|--------7/-------|-------------------|
G----------12\--7-|-7--------------|-----------------|-------------------|
D-----------------|----------------|-----------------|-------------------|
A-----------------|----------------|-----------------|-------------------|
E-----------------|----------------|-----------------|-------------------|
  you fly      But only if you ride the tide      And balanced on the big-

                    G                  D7#9      D7b9      Em
E-----------------|-------------------|------------------|--------------||
B-----------------|-12-----------\----|------------------|--------------||
G-----------------|-12-----------\----|-10\------\8-----/|/9------------||
D-----------------|-------------------|------------------|--------------||
A-----------------|-------------------|------------------|--------------||
E-----------------|-------------------|------------------|--------------||
  gest wave    you race towards an ear-ly grave


Suggest correction
comments
print report bad tab
guest
You may want to rate the tab now too:
select rating
Wanna post a correction for this tab? Suggest correction