Oops, an error
Loading. Please wait.

Careful With That Axe Eugene Tab

version 1
version 1

Whole song

Interactive

20,349 views 39 this week
no commentswrite comment
1 2 3 4 5
accurate
x 4
add to favorites
launch autoscroll
font size
0
reset
how to read this tab
guitar tuner
Tab Pro tools
  • play this tab
  • loop segment
  • change instrument
  • show fretboard
  • metronome
×
Best way to learn
"Careful With That Axe Eugene"
Autoscroll
slow
fast
+/-
esc
set tempo
stop
Contributor
Artist: pink floyd
Title: Careful With That Axe, Eugene
Album: Live at Pompeii
Email: TylerM0sk0witz@hotmail.com

Careful with that Axe, Eugene - Pompeii
by Pink Floyd


Drop D tuning
(DADGBD)

		     cont. **            x2
|---------------------|----3---2---2---|-(3)/5-5---5---|
|---------------------|---3-3---3---3--|-(3)/5--5---5--|
|---------------------|--2---2---3---3-|-(2)/4---4---4-|
|-----0---0---0---0---|-0--------------|---------------|
|------------------0--|----------------|---------------|
|-(0)---0---0---0---0-|----------------|---------------|
  *bass arr. for guitar.

  **(pick notes randomly)

 **            x2						x2
|----3---2---2---|-(3)/5-5---5---|----3---2---2---|
|---3-3---3---3--|-(3)/5--5---5--|---3-3---3---3--|
|--2---2---3---3-|-(2)/4---4---4-|--2---2---3---3-|
|-0--------------|---------------|-0--------------|
|----------------|---------------|----------------|
|----------------|---------------|----------------|
  **(pick notes randomly)

|---------------------------------------------------------------------|
|------------------------19---------(13)(13)(13)(13)-(12)-(10)--------|
|-(2)//(18)----18(20)~~~~--18(20)~~-(13)(13)(13)(13)-(12)-(10)---10\\-|
|---------------------------------------------------------------------|
|---------------------------------------------------------------------|
|---------------------------------------------------------------------|

|------------------------------------|
|------------------------------------|
|-7~-9(11)-9(11)-9-7-5\-(2)--2-------|
|------------------------------------|
|------------------------------------|
|------------------------------------|

 **            x2	    		  x2
|----3---2---2---|----3---2---2---|
|---3-3---3---3--|---3-3---3---3--|
|--2---2---3---3-|--2---2---3---3-|
|-0--------------|-0--------------|
|----------------|----------------|
|----------------|----------------|
**(pick notes randomly)

|----------------------------------------------------------|-----------|
|----------------------------------------------------------|-13-13-13--|
|--/(18)--18-18-18(20)----18(20)---18(20)---18(20)--13(15)-|-13-13-13--|
|----------------------------------------------------------|-----------|
|----------------------------------------------------------|-----------|
|----------------------------------------------------------|-----------|
        x2
----------|-----------------------------------------------------------|
-12-12-12-|----------------------------------13-13-13--12-12-12-------|
-12-12-12-|--18-18-18-(20)----18(20)--13(15)-13-13-13--12-12-12---7~\-|
----------|-----------------------------------------------------------|
----------|-----------------------------------------------------------|
----------|-----------------------------------------------------------|

 **            x4
|----3---2---2---|
|---3-3---3---3--|
|--2---2---3---3-|
|-0--------------|
|----------------|
|----------------|
**(pick notes randomly)

|---------------------------------------------------------------------|
|-----------------------------------------------------13-13-13-12-12--|
|-/18-18-18--18(20)--18-20(22)-20(22)--18(20)--13(15)-13-13-13-12-12--|
|---------------------------------------------------------------------|
|---------------------------------------------------------------------|
|---------------------------------------------------------------------|

|-----------------------------------|-------------------|
|-----------------------------------|-------------------|
|-----------------------------------|--2-0--------------|
|--14(16)--7--9(11)-9(11)---9-7-5-7-|-------3-2-0-------|
|-----------------------------------|--------------3/5--|
|-----------------------------------|-------------------|

                                        x2               x2
|---3/-5/-7/-9/-11/-14\---12\-10\-8\-6\--|--3-3-3--2-2-2--|
|----------------------------------------|----------------|
|--2/-4/-6/-8/-10/-13\---11\-9\-7\-5\----|-2-2-2----------|
|----------------------------------------|----------------|
|----------------------------------------|----------------|
|----------------------------------------|----------------|

AAAAAAAAAAAARRRRRRRRGGHHHHHHHHHHHHHHHHHh etc.

|---------------------------------------------------|
|---------------------------------------------------|
|--5h7~~~~~--7-9--9(11)-9(11)----7-5--2-0-----------|
|------------------------------------------2-0------|
|-----------------------------------------------3/5-|
|---------------------------------------------------|

*For solos improvise on Dm pentatonic.
Heavy bending on 9, 18 and 20th frets, harmonizing with backing vocals.

|--12p11----9-11-12-12/16-15-13-16/19-18-16-19/21-21-21-21-22(24)--|
|--------12--------------------------------------------------------|
|------------------------------------------------------------------|
|------------------------------------------------------------------|
|------------------------------------------------------------------|
|------------------------------------------------------------------|

depress trem. arm""""""""""""""""""""""""
|--22p20-22p20-22p20-22p20-22p20-22p20-22p20---22(24)-22(24)------|
|-----------------------------------------------------------------|
|-----------------------------------------------------------------|
|--------------------------------------------------------------7~-|
|--------------------------------------------------------------5~-|
|--------------------------------------------------------------0~-|

|------------------|
|------------------|
|--5~--------------|
|-----5------------|
|-------7(8)--(5)--|
|--------------0---|

|-------------------------------------------|
|------------------------19-----------------|
|-(2)//(18)----18(20)~~~~--18(20)~~---------|
|-------------------------------------------|
|-------------------------------------------|
|-------------------------------------------|

|---------------------------------------------------------------------|
|-----------------------------------------------------13-13-13-12-12--|
|-/18-18-18--18(20)--18-20(22)-20(22)--18(20)--13(15)-13-13-13-12-12--|
|---------------------------------------------------------------------|
|---------------------------------------------------------------------|
|---------------------------------------------------------------------|

|---3/-5/-7/-9/-11/--|--3-3-3--2-2-2--|
|--------------------|----------------|
|--2/-4/-6/-8/-10/---|-2-2-2----------|
|--------------------|----------------|
|--------------------|----------------|
|--------------------|----------------|

|---3/-5/-7/-9/-11/--9\--7\-5\-3\---|--3-3-3--2-2-2--|
|-----------------------------------|----------------|
|--2/-4/-6/-8/-10/--8\--6\-4\-2\----|-2-2-2----------|
|-----------------------------------|----------------|
|-----------------------------------|----------------|
|-----------------------------------|----------------|

**            x2	    		  x2
|----3---2---2---|----3---2---2---|-3-3-3--2-2-2---(3)--|
|---3-3---3---3--|---3-3---3---3--|-3-3-3--3-3-3---(3)--|
|--2---2---3---3-|--2---2---3---3-|-2-2-3--2-2-2---(2)--|
|-0--------------|-0--------------|-0------0-------(0)--|
|----------------|----------------|---------------------|
|----------------|----------------|----------------(0)--|
**(pick notes randomly)

Email: TylerM0sk0witz@hotmail.com
comments
print report bad tab
I want to post or [tab]
guest
You may want to rate the tab now too:
select rating
Please do not post tabs as comments. Select "correction" instead!