Oops, an error
Loading. Please wait.

Cirrus Minor Chords

version 1
version 1

Whole song

Interactive

14,360 views 9 this week
4 commentsread comments
1 2 3 4 5
accurate
x 6
add to favorites
launch autoscroll
font size
0
reset
transpose
0
reset
simplify chords
display chords
guitar tuner
Tab Pro tools
  • play this tab
  • loop segment
  • change instrument
  • show fretboard
  • metronome
×
Best way to learn
"Cirrus Minor"
Autoscroll
slow
fast
+/-
esc
set tempo
stop
Contributor
Pink Floyd - Cirrus Minor (Waters, Wright, Gilmour, Mason)


Em         Eb+  G/D         C#m7            C7
In a churchyard by a river, lazing in the haze of midday,

Cm7                 B7          Em
Laughing in the grasses and the graze.

Em           Eb+ G/D              C#m7           C7
Yellow bird, you are not alone in singing and in flying on,

   Cm7             B7           Em
In laughing and in leaving.


Em         Eb+ G/D           C#m7          C7
Willow weeping in the water, waving to the river daughters,

Cm7               B7           Em
Swaying in the ripples and the reeds.

Em        Eb+  G/D           C#m7         C7
On a trip to__ Cirrus Minor, saw a crater in the sun

  Cm7               B7                  Em
A thousand miles of moonlight later.

Em  Bm  D  A  G  D  B
comments
print report bad tab
4 comments total. Showing first comments.
0 reply
hak_hap wrote on July 15 2005, 12:00 am

Nothing more to say about your chords but this:

e|----------------------------------------------------------------
B|--------0---------------0---------------0---------------0-------
G|----0-------0-------0-------0-------0-------0-------0-------0---
D|2---------------1---------------0---------------0---------------
A|----------------------------------------------------------------
E|----------------------------------------------------------------

In - a_____ church - yard by___ a - ri - ver,


e|----------------------------------------------------------------
B|----------------------------------------------------------------
G|--------4---------------4---------------3---------------3-------
D|----2-------2-------2-------2-------2-------2-------2-------2---
A|4---------------4---------------3---------------3---------------
E|----------------------------------------------------------------

la - zing - in the haze____ of mid day,


e|----------------------------------------------------------------
B|----------------------------------------------------------------
G|--------3---------------3---------------2---------------2-------
D|----1-------1-------1-------1-------1-------1-------1-------1---
A|3---------------3---------------2---------------2---------------
E|----------------------------------------------------------------

laugh ing___ in - the gras - ses and the gra -


e|0-----------------------0---------------------------------------
B|0-----------------------0---------------------------------------
G|0-------0---1---0-------0---------------------------------------|
D|2-----------------------2---------------------------------------
Á|2-----------------------2---------------------------------------
E|0-------------------0---0---------------------------------------

ze______.

Chords:

1st: E to e
2nd: e to E (Slowly, to touch each string)

Rest of the lyrics:

Yellow bird, you are not 'lone in singing and in flying on,
in laughing and in leaving.

Willow weeping in the water, waving to the river daughters,
swaying in the ripples and the reeds.

On a trip to Cirrus Minor, saw a crater in the sun
a thousand miles of moonlight later.

(After that the guitar fades and the organ begins to play...)

0 reply
the piper wrote on August 18 2006, 07:36 pm

well guess wat hak hap, your tab isn't all the way right either

-1 reply
blind_melon1995 wrote on November 5 2006, 11:25 am

CUNT BISCUITS!

I want to post or [tab]
guest
You may want to rate the tab now too:
select rating
Please do not post tabs as comments. Select "correction" instead!