Oops, an error
Loading. Please wait.

Cirrus Minor chords

version 2
version 2

Whole song

Interactive

914 views 12 this week
5 commentsread comments
1 2 3 4 5
x 3
add to favorites
×
Save as Personal and add changes to this tab that will be seen only by you. Learn more ›
×
You can save this tab as Personal to edit and correct it or add notes. All changes will be seen only by you. Learn more »
launch autoscroll
font size
0
reset
transpose
0
reset
simplify chords
display chords
guitar tuner
edit
Autoscroll
slow
fast
+/-
esc
set tempo
stop
Author
Difficulty
intermediate
Strumming
There is no strumming pattern for this song yet. and get +5 IQ
Song: Cirrus Minor
Artist: Pink Floyd
Composer: Roger Waters
Album: Relics
Tabbed by DJ
17th July 2015

Em      = 022000   C#m7-5 = x42000   D/A = x00232
Em7     = 020000   C7     = x32310   A   = x02220
Em/G    = 322000   Cm7    = x31313   G   = 320033
EmM7/D# = xx1000   B7     = x21202   D   = xx0232
G/D     = xx0003   Bm     = x24432   B   = x24442

*********************************************************

[Intro]
    Em       Em7   Em       Em/G
||: /  /  /   /  |  /  /  /  /  :|| [x2]


[Verse 1]
Em           EmM7/D#  G/D
In a church - yard,   by a river,
C#m7-5         C7
Lazing in the haze of mid -day,
  Cm7             B7
Laughing in the grasses,
          Em
And the graves!
    e |---0-----------------|---0-----------------|
    B |---0-----------------|---0-----------------|
    G |---0-----------------|---0-----------------|
    D |---2-----------------|---2-----------------|
    A |---2---2--3--2-------|---2---2--3--2-------|
    E |---0-------------3---|---0-----------------|


[Verse 2]
Em          EmM7/D#   G/D             C#m7-5
Yellow bird you    ...are not long in singing,
         C7             Cm7              B7
And in flying on, in laughing, and in leaving!

     Em
e |---0-----------------|---------------------|
B |---0-----------0-----|---------------------|
G |---0-------------0---|---------------------|
D |---2---------------2-|---------------------|
A |---2---2--3--2-------|---2---2--3--2-------|
E |---0-----------------|---0-----------------|


[Verse 3]
Em           EmM7/D#   G/D
Willow weep - ing   ...in the water,
C#m7-5         C7
Waving to the river-daughters,
  Cm7            B7
Swaying in the ripples,
         Em
And the reeds!
    e |---0-----------------|---------------------|
    B |---0-----------0-----|---------------------|
    G |---0-------------0---|---------------------|
    D |---2---------------2-|---------------------|
    A |---2---2--3--2-------|---2---2--3--2-------|
    E |---0-----------------|---0-----------------|


[Verse 4]
Em       EmM7/D#  G/D         C#m7-5        C7
On a trip to  ...Cirrus Minor, saw a crater in the sun,
     Cm7              B7
A thousand miles of moonlight later!

     Em
e |---0-----------------|---0-------------------| [x3]
B |---0-----------------|---0-------------------|
G |---0-----------------|---0-------------------|
D |---2-----------------|---2-------------------|
A |---2---2--3--2-------|---2---2--3--2---------|
E |---0-------------3---|---0-------------3-p2--|

     Em
e |---0-----------------|
B |---0-----------------|
G |---0-----------------|
D |---2-----------------|
A |---2---2--3--2-------|
E |---0-------------3---|


[Coda - Repeats]
    Bm                       D/A
||: /  /  /  / | /  /  /  / | /  /  /  / | /  /  /  / |

    A                         G            D
  | /  /  /  / | /  /  /  / | /  /  /  / | /  /  /  / |

    B                         Em
  | /  /  /  / | /  /  /  / | /  /  /  / | /  /  /  / :||

            
            
Suggest correction
Creating personal tab
Creating personal tab
You can edit any tab online and save it as your Personal.

You can edit, replace or remove any tab part or add personal notes – all changes will be seen only by you.

Personal tabs can be accessed anytime from any device, even offline.
Learn more »
Give kudos to tab author, rate the tab!
1 2 3 4 5
comments
print report bad tab
5 comments total. Showing first comments.
0 reply
relayer1 57 Dec 20, 2016 03:01 AM

EmM7/D# has to be the worst sounding chord I've ever heard. Even for Roger Waters, that's dissonant!

guest
You may want to rate the tab now too:
select rating
Wanna post a correction for this tab? Suggest correction