Oops, an error
Loading. Please wait.

Comfortably Numb Bass Tab

version 1
version 1
151,427 views 384 this week
13 commentsread comments
1 2 3 4 5
excellent!
x 78
add to favorites
launch autoscroll
font size
0
reset
guitar tuner
Tab Pro tools
  • play this tab
  • loop segment
  • change instrument
  • show fretboard
  • metronome
×
Best way to learn
"Comfortably Numb"
Autoscroll
slow
fast
+/-
esc
set tempo
stop
Song Title: Comfortably Numb
Artist: Pink Floyd
----------------------------------------------
Old Contributor: Unregistered (Whisper)
New Contributor: Teh D Bot
Old Tab at Bottom

G|---------------------------------|
D|---------------------------------|
A|-2------22-------2-------2-------|
E|---------------------------------|
   1 + 2 + 3 + 4 + 1 + 2 + 3 + 4 +

Verse 0:07
G|-------------------------------------------------------------------|
D|o-----------------------------------------------------------------o|
A|o-2------22-------0-------0-----------------------2-------2-------o|
E|----------------------------------3-----2-0------------------------|
    1 + 2 + 3 + 4 + 1 + 2 + 3 + 4 + 1 + 2 + 3 + 4 + 1 + 2 + 3 + 4 +

0:37
G|-----------------------------------------------------------------|
D|-----------------------------------------------------------------|
A|-2------22-------0------00-----------------------2-------2-------|
E|---------------------------------3-----2-0-----------------------|
   1 + 2 + 3 + 4 + 1 + 2 + 3 + 4 + 1 + 2 + 3 + 4 + 1 + 2 + 3 + 4 +

Pre Chorus 0:52
G|-----------------------------------------------------------------|
D|-----------------------------------------------------------------|
A|-5-----------5-\-0---------------5-----------5-\-0------------2--|
E|-----------------------------------------------------------------|
   1 + 2 + 3 + 4 + 1 + 2 + 3 + 4 + 1 + 2 + 3 + 4 + 1 + 2 + 3 + 4 +

G|-----------------------------------------------------------------|
D|-----------------------------------------------------------------|
A|-3----------------------------2--3-------------2-----------------|
E|-----------------3-------------------------------3---------------|
   1 + 2 + 3 + 4 + 1 + 2 + 3 + 4 + 1 + 2 + 3 + 4 + 1 + 2 + 3 + 4 +

Chorus 1:23
G|-----------------------------------------------------------------|
D|-----------------------------------------------------------------|
A|-5-------5---5-\-0---------------5-----------5-\-0------------2--|
E|-----------------------------------------------------------------|
   1 + 2 + 3 + 4 + 1 + 2 + 3 + 4 + 1 + 2 + 3 + 4 + 1 + 2 + 3 + 4 +

G|-----------------------------------------------------------------|
D|-----------------------------------------------------------------|
A|-3-------3--------------------2-23-------3-----------------------|
E|-----------------3-------3-----------------------3---------------|
   1 + 2 + 3 + 4 + 1 + 2 + 3 + 4 + 1 + 2 + 3 + 4 + 1 + 2 + 3 + 4 +

1:53
G|-------------------------------------------------|
D|-------------------------------------------------|
A|-0-----0-0----2--3---------------5-------5-------|
E|-------------------------3-----------------------|
   1 + 2 + 3 + 4 + 1 + 2 + 3 + 4 + 1 + 2 + 3 + 4 +

Solo 2:05
G|-----------------------------------------------------------------|
D|-----------------------------------------------------------------|
A|-5-------5-------0------00---234-5-------5-----\-0-------0----2--|
E|-----------------------------------------------------------------|
   1 + 2 + 3 + 4 + 1 + 2 + 3 + 4 + 1 + 2 + 3 + 4 + 1 + 2 + 3 + 4 +

G|-----------------------------------------------------------------|
D|-----------------------------------------------------------------|
A|-3-------3--------------------5--3-------3-----------------------|
E|-----------------3------23---3-3-----------------3------33-------|
   1 + 2 + 3 + 4 + 1 + 2 + 3 + 4 + 1 + 2 + 3 + 4 + 1 + 2 + 3 + 4 +

2:34
G|-------------------------------------------------|
D|-------------------------------------------------|
A|-0-------0----2--3---3h5---------5---------------|
E|-------------------------3-----------------------|
   1 + 2 + 3 + 4 + 1 + 2 + 3 + 4 + 1 + 2 + 3 + 4 +

Verse 2:45
G|-----------------------------------------------------------------|
D|-----------------------------------------------------------------|
A|-2---r--22---r---0---r---0---r-------------------2--------------2|
E|---------------------------------3---r-2-0---r-------------------|
   1 + 2 + 3 + 4 + 1 + 2 + 3 + 4 + 1 + 2 + 3 + 4 + 1 + 2 + 3 + 4 +

G|-----------------------------------------------------------------|
D|-----------------------------------------------------------------|
A|-2---------------0---r---0r0-r-------------------2---------------|
E|---------------------------------3---r-2-0-----------------------|
   1 + 2 + 3 + 4 + 1 + 2 + 3 + 4 + 1 + 2 + 3 + 4 + 1 + 2 + 3 + 4 +

Pre Chorus 3:16
G|-----------------------------------------------------------------|
D|-----------------------------------------------------------------|
A|-5-----------5-\-0------------0--5-----------5-\-0------------2--|
E|-----------------------------------------------------------------|
   1 + 2 + 3 + 4 + 1 + 2 + 3 + 4 + 1 + 2 + 3 + 4 + 1 + 2 + 3 + 4 +

G|-----------------------------------------------------------------|
D|-----------------------------------------------------------------|
A|-3-------3---3h5--------------2--3-------3---2-------------------|
E|-----------------3-------3-----------------------3------33-------|
   1 + 2 + 3 + 4 + 1 + 2 + 3 + 4 + 1 + 2 + 3 + 4 + 1 + 2 + 3 + 4 +

Chorus 3:47
G|-----------------------------------------------------------------|
D|-----------------------------------------------------------------|
A|-5-------5---5-\-0---------------5-----------5-\-0------------2--|
E|-----------------------------------------------------------------|
   1 + 2 + 3 + 4 + 1 + 2 + 3 + 4 + 1 + 2 + 3 + 4 + 1 + 2 + 3 + 4 +

G|-----------------------------------------------------------------|
D|-----------------------------------------------------------------|
A|-3-------3---3h5--------------2--3-------3-----------------------|
E|-----------------3-------3-----------------------3---------------|
   1 + 2 + 3 + 4 + 1 + 2 + 3 + 4 + 1 + 2 + 3 + 4 + 1 + 2 + 3 + 4 +

4:17
G|-----------------------------------------------------------------|
D|-----7-7-7-------------------------------------------------------|
A|-0-----------02--3---3-3---------5---5---5---5---5---5---5-\-----|
E|-------------------------3---------------------------------------|
   1 + 2 + 3 + 4 + 1 + 2 + 3 + 4 + 1 + 2 + 3 + 4 + 1 + 2 + 3 + 4 +

Solo 4:32
G|-----------------------------------------------------------------|
D|-----------------------------------------------------------------|
A|-2-------2-------0-------0-----------------------2-------2-2-52r-|
E|---------------------------------3-----2-0-----------------------|
   1 + 2 + 3 + 4 + 1 + 2 + 3 + 4 + 1 + 2 + 3 + 4 + 1 + 2 + 3 + 4 +

G|-----------------------------------------------------------------|
D|-----------------------------------------------------------------|
A|-2-------2-------0-------0-0-0-------------------2-------2-2-----|
E|---------------------------------3-----2-0-----------------------|
   1 + 2 + 3 + 4 + 1 + 2 + 3 + 4 + 1 + 2 + 3 + 4 + 1 + 2 + 3 + 4 +

5:02
G|-----------------------------------------------------------------|
D|-----------------------------------------------------------------|
A|-2-------2-2--2--0-------0-0--0----------------0-2-------2-------|
E|---------------------------------3-----2-0---3-------------------|
   1 + 2 + 3 + 4 + 1 + 2 + 3 + 4 + 1 + 2 + 3 + 4 + 1 + 2 + 3 + 4 +

G|-----------------------------------------------------------------|
D|-----------------------------------------------------------------|
A|-2-------2-2-----0-------0-0---------------------2-------2-------|
E|---------------------------------3-----2-0-----------------------|
   1 + 2 + 3 + 4 + 1 + 2 + 3 + 4 + 1 + 2 + 3 + 4 + 1 + 2 + 3 + 4 +

5:33
G|-----4-------4-\-----2-------2-----------------------4-------42--|
D|---------------------------------------------------------------42|
A|-2-------2-------0-------0-----------------------2-------2-2-----|
E|---------------------------------3-----2-0-----------------------|
   1 + 2 + 3 + 4 + 1 + 2 + 3 + 4 + 1 + 2 + 3 + 4 + 1 + 2 + 3 + 4 +

G|-----4-------4-4-----2-------2-2---------------------4-4-----4-2-|
D|-------------------------------------5--------------------------4|
A|-2-2---2-2-2-----0-0---0-0-0---------------------2-2-----2-2-----|
E|---------------------------------3-3---2-0-0-0-0-----------------|
   1 + 2 + 3 + 4 + 1 + 2 + 3 + 4 + 1 + 2 + 3 + 4 + 1 + 2 + 3 + 4 +

6:03
G|-----4-------4-4-----2-------2----------------------44--4----4-2-|
D|-------------------------------------5-------2------------------4|
A|-2-22--222-22----0-0-----0-00--0-----------------2-------2-2-----|
E|---------------------------------3--3--2-0-----------------------|
   1 + 2 + 3 + 4 + 1 + 2 + 3 + 4 + 1 + 2 + 3 + 4 + 1 + 2 + 3 + 4 +
Tabbed by Dave Vucko


==========================================================================================

one pink floyd's many masterpieces, laid back and with a hell-of-a-lot of soul



intro:

  Bm        Bm 
||-----------|----------||
||-----------|----------||
||2---2-2----|2----2----||
||-----------|----------||
           guitar slide


verse 1:

  Bm          A          G     Em    B
||-----------|----------|-----------|----------|
||-----------|----------|-----------|----------|   played 3x
||2---2-2----|0----0----|-----------|2----2----|
||-----------|----------|3---2-0----|----------|
 "hello..."


chorus 1:

  D           A          D          A          C          G          C         G
||-----------|----------|----------|----------|----------|----------|---------|----------||
||-----------|----------|----------|----------|----------|----------|---------|----------||  
||5-------5\-|0---------|5------5\-|0-------2-|3---------|--------2-|3--------|----------||
||-----------|----------|----------|----------|----------|3---------|---------|3---------||
  "there is no pain..."
                               
play the chorus 2x then bridge 1:

                             A           C    G     D           
                           ||-----------|----------|----------||
                           ||-----------|----------|----------||
                           ||0--0-0---2-|3---------|5----5----||
                           ||-----------|-----3----|----------||
                            "i...have become comfortably numb" 


guitar solo 1:

  D          A              D          A           C          G           C          G
||----------|--------------|----------|-----------|----------|-----------|----------|---------||
||----------|--------------|----------|-----------|----------|-----------|----------|---------||
||5----5--\-|0---0-0--2-3-4|5----5--\-|0---0-0--2-|3----3----|---------5-|3---3-3---|---------||
||---------\|--------------|---------\|-----------|----------|3---2-3----|----------|3--3-3---||


bridge 2: 

                            A           C      G     D
                          ||-----------|------------|----------||
                          ||-----------|------------|----------||
                          ||0----0---2-|3--3-5------|5---------||
                          ||-----------|-------3----|----------||
                           "i...have become comfortably numb"


verse 2:    same as verse 1 but only played 2X



chorus 2:     same as chorus 1 tabed above



bridge 3:     

              A             C     G     D            D   
            ||-------------|-----------|------------|-----------|| 
            ||---7--7------|-----------|------------|-----------||
            ||0--------0-2-|3---3------|5--5--5--5--|5--5--5\---||
            ||-------------|------3----|------------|--------\--||
             "i...have become comfortably numb"


guitar solo 2:  same as the verse riff and it continues on throughout the solo
                so just keep funking' it up untill the end



any comments, questions, or tabs email me at whisper@shadow.net       !PEACE!

 

Submitted by:  Whisper (whisper@shadow.net)

comments
print report bad tab
13 comments total. Showing first comments.
0 reply
chris.bassman wrote on October 13 2004, 12:00 am

not that bad

0 reply
synyster.punk wrote on September 10 2006, 11:23 pm

very good tab

-1 reply
Lil_C wrote on October 6 2006, 02:37 pm

kl man! gr8 song n gr8 tab

I want to post or [tab]
guest
You may want to rate the tab now too:
select rating
Please do not post tabs as comments. Select "correction" instead!