Oops, an error
Loading. Please wait.
We have an official Comfortably Numb tab made by UG professional guitarists. Check out the tab »
×
76,428 views 81 this week
4 commentsread comments
1 2 3 4 5
x 15
add to favorites
launch autoscroll
font size
0
reset
how to read this tab
guitar tuner
backing track
0:00
0:00
Autoscroll
slow
fast
+/-
esc
set tempo
stop
[Solo]
(2:05)
e|--14~~~~--14b15---------------------------------------14b15r14-------------|
B|-----------------15b17----15--14--14----------------------------15b17------|
G|-------------------------------------14------------------------------------|
D|----------------------------------------14-\-12--12~~~---------------------|
A|---------------------------------------------------------------------------|
E|---------------------------------------------------------------------------|

(2:18)
e|----------------------------------------------------------------------------|
B|--15--14--------------------------------------------------------------------|
G|----------14---------------------12~~--11----------11p9--11--9--7~~-9p7----7|
D|--------------14-\-12--11--9--7-----------14--12------------------------9---|
A|----------------------------------------------------------------------------|
E|----------------------------------------------------------------------------|

(2:27)                                                 
e|------------15---14---12----------------------------------------------------|
B|-------------------------15---12--------------------------------------------|
G|--9--11b12-----------------------12-----------------------------------------|
D|-------------------------------------12~~---10\9~~~10\9\7~~-----------------|
A|----------------------------------------------------------------------------|
E|----------------------------------------------------------------------------|

(2:39)
e|----------------------------------------------------------------------------|
B|----------------------------------------------------------------------------|
G|--11b12--9b11--9b11r9\7-----------------------------------------------------|
D|-------------------------7\9\7----------------------------------------------|
A|----------------------------------------------------------------------------|
E|----------------------------------------------------------------------------|


************************************

| r  Release
| b  Bend
| ~  Vibrato
| \  Slide down
| p  Pull-off

************************************
Suggest correction
comments
print report bad tab
4 comments total. Showing first comments.
0 reply
Crux 20 Apr 12, 2004 08:00 PM

Great tab on the first solo! Theres only one part that I think is wrong and that is 11p9--11--9--7~~. I kinda think it is,
11p9--9---7-7~, but I could be wrong. Once again, great tab.

0 reply
atc228 50 Oct 09, 2004 08:00 PM

excellent, missed a few small notes but no matter, this kicks ass

0 reply
rubengarzaMKvDC 10 Aug 02, 2015 11:53 AM

great stuff, but try this out,
e-----14~~~~~14b15
B---x--------------
G-x----------------
D------------------
A------------------
E------------------

e-----14b15r14-----
B---x--------------
G-x----------------
D------------------
A------------------
E------------------

e-----15--14--12---
B---x--------------
G-x----------------
D------------------
A------------------
E------------------

i found that it sounds very close to the original. :)
other than that, great stuff!!

guest
You may want to rate the tab now too:
select rating
Wanna post a correction for this tab? Suggest correction