Oops, an error
Loading. Please wait.

Corporal Clegg Tab

version 1
version 1

Whole song

Interactive

11,639 views 21 this week
4 commentsread comments
1 2 3 4 5
excellent!
x 15
add to favorites
launch autoscroll
font size
0
reset
how to read this tab
guitar tuner
Autoscroll
slow
fast
+/-
esc
set tempo
stop
Help us to improve Ultimate-Guitar.com Take our survey!
×
#----------------------------------PLEASE NOTE---------------------------------#
#This file is the author's own work and represents their interpretation of the #
#song. You may only use this file for private study, scholarship, or research. #
#------------------------------------------------------------------------------##
From: polivier@jrv.interax.net
Date:          Thu, 8 Jun 1995 06:55:19 -0500

                      - C O R P O R A L  C L E G G -
                              The Pink Floyd
                      Words and Music by Roger Waters


Riff 1:
~~~~~~~
|-------------------------0----------------|
|-------------------------8----------------|
|-------------------------7----------------|
|-------------------------6----------------|
|-----2--3--2-------------7----------------|
|--0-----------3---0------0----------------|
               |
               Bend (1/4)


A        C    D              A
Corporal Clegg had a wooden leg.

   N.C.          E7+9
He won it in the war in nineteen forty-four.

A        C    D              A
Corporal Clegg had a medal, too,

   N.C.            E7+9
In orange, red and blue. He found it in the zoo.


Riff 2:

   Bm                       F#
|-----------------------------------------------------|
|-----------------------------------------------------|
|-----------------------------------------------------|
|-----4--3--------------------------------------------|
|--2--------2--------2--------------------------------|
|--------------3--5-----0---2-2--2-2--2-2-------------|
               |
               Bend (1/4)


Bm                                 F#
Dear, oh dear, oh, are they really sad for me?

Bm                                   F#            D
Dear, oh, dear, oh, will they really laugh at me?

D                                   G
Missus Clegg, you must be proud of him.

D                              G
Missus Clegg, another drop of gin?


A  Ab  G  D  A7  D  G  D  A7  D

A        C     D                 A
Corporal Clegg, umbrella in the rain.

     N.C.           E7+9
He's never been the same. No one is to blame.

A        C     D                        A
Corporal Clegg, received his medal in a dream

         N.C.         E7+9
>From Her Majesty, the Queen. His boots were very clean.

D                                   G
Missus Clegg, you must be proud of him.

D                              D
Missus Clegg, another drop of gin?


A  Ab  G

D               A7
Corporal Clegg.

D
Corporal Clegg.

=-=-=-=-=-=-=-=-=-=-=-=-=-=-=-=-=-=-=-=-=-=-=-=-=-=-=-=-=-=-=-=-=-=-=-=-=
=          F i S h  - Current Adress: polivier@jrv.qc.ca
  =
= Comments/Corrections/Other floyd's/I Want Roio's  Please Email
me!!!  =

=-=-=-=-=-=-=-=-=-=-=-=-=-=-=-=-=-=-=-=-=-=-=-=-=-=-=-=-=-=-=-=-=-=-=-=-=
See ya!
Suggest correction
What's this?
You can suggest a correction to this tab. Community and Mods will review your correction and vote to approve or reject it.
comments
print report bad tab
4 comments total. Showing first comments.
0 reply
blind_melon1995 10 wrote on November 4 2006, 11:31 am

good job, but are you sure roger wrote it? it sounds like syds lyrics lol 5 stars

0 reply
ColonD 13 wrote on September 2 2007, 05:16 pm

:D Ahhahah! In my opinion, one of the Floyds best songs! (excluding the kazoo solo and lyrics)

GREAT JOB. I've been looking for this! Thank you so much!

Oh, and just to clear things up, the liner notes on 'a saucerful of secrets' says "Words and Music by Roger Waters (copyright) 1968 by Lupus Music Ltd". On the whole album, Barrett only wrote 'Jugband Blues'. Although, it is REALLY Barrettey :-)

0 reply
Titani 39 wrote on April 27 2010, 06:20 am

The N.C. is an A. All A chords are played on bass E (fifth fret).

About the ending...not sure if it's a D, but I'm not 100% positive..
The second riff has something odd about it...can't spot it exactly.

Intro:


E7+9
|----------------------0-------0------0-------0-|
|----------------------8-------8------8-------8-|
|----------------------7-------7------7-------7-|
|----------------------6-------6------6-------6-|
|-----2--3--2----------7-------7------7-------7-|
|--0-----------3b---0--0--0-0--0---0--0--0-0--0-|

guest
You may want to rate the tab now too:
select rating
Please do not post tabs as comments. Select "correction" instead!