Oops, an error
Loading. Please wait.

Dogs Tab

version 3
version 3

Whole song

Interactive

12,414 views 12 this week
1 commentread comment
1 2 3 4 5
accurate
x 5
add to favorites
launch autoscroll
font size
0
reset
how to read this tab
guitar tuner
Autoscroll
slow
fast
+/-
esc
set tempo
stop
Help us to improve Ultimate-Guitar.com Take our survey!
×
Author
Tuning
D A D G B E
----------------------------------------------------------------------------
DOGS - Pink Floyd
----------------------------------------------------------------------------
Tabbed by: Spence
Email: gibsonpuppeteer@gmail.com
Tuning: Drop-D (DADGBE)

I've searched all the tab sites I know of, and still could not find a correct
version of this song's rhythm part, especially the chords in the intro/verse.
So here's what I came up with; it sounds right to me.  Tell me what you think.

Intro/Verse/Under Solo 1 (Listen for strumming pattern)
e||--0----1----0----1--|    |-0-|
B||--1----3----3----3--|    |-3-|
G||--2----3----4----3--|    |-2-| This is also used at times,
D||--0----3----0----3--|    |-0-| such as before solo 2
A||-------1---------1--|    |---|
D||--------------------|    |---|

Solo 1
e||---/12---13--12--12--10----------------------------------------|
B||-------------------------10--12--13--13--12--10----------------|
G||-------------------------------------------------12--10--9--7--|
D||---------------------------------------------------------------|
A||---------------------------------------------------------------|
D||---------------------------------------------------------------|

e||-------------------------------------------------------------x-|
B||-------6p5--------------------------------------------------x--|
G||--5h7-------7p5--3---3---3h5--5/7--5--7--9--10b12--10--10--x---|
D||---------------------------------------------------------------|
A||---------------------------------------------------------------|
D||---------------------------------------------------------------|

e||---13--12--10---/13--12--10----------------------------------------|
B||-----------------------------13------------------------------------|
G||---------------------------------12b14--12b14--12b14--10h12p10--9--|
D||-------------------------------------------------------------------|
A||-------------------------------------------------------------------|
D||-------------------------------------------------------------------|

e||-------------------------------------------------------------------|
B||-------------------------------------------------------------------|
G||---9h10p10--9------7--9--10--9----------7--9--9h10p9--9--9--10--12-|
D||---------------10---------------7h9h10-----------------------------|
A||-------------------------------------------------------------------|
D||-------------------------------------------------------------------|

e||-------------------------------------------------------------------|
B||---10--12--12b13--12--12--10--10-------------------/13--12--10--10-|
G||----------------------------------12--12--10--10-------------------|
D||-------------------------------------------------------------------|
A||-------------------------------------------------------------------|
D||-------------------------------------------------------------------|

e||------------------------------------------------------------|
B||---13---12---11---10----------------------------------------|
G||-------------------------12---10---9---7---9---10---10b12r--|
D||------------------------------------------------------------|
A||------------------------------------------------------------|
D||------------------------------------------------------------|

Before Solo 2  (Fill over verse chords)   (Last thing before solo)
e||------------------------------------|  |--------------------|
B||---------5---6---5h6p5--------------|  |--------------------|
G||---7---------------------7---5---7--|  |--------------------|
D||------------------------------------|  |--------------------|
A||------------------------------------|  |------------3-------|
D||------------------------------------|  |-/7-0---/7----5p3-0-|

Play under Solo 2 (Listen for strumming patterns)
e||--0----1----0----1----0----1----1----2----1----2----1--|
B||--1----3----1----3----1----3----1----3----1----3----3--|
G||--0----2----0----2----0----3----2----2----2----2----2--|
D||--2----0----2----0----2----3----3----1----3----1----0--|
A||--3----0----3----0----3----1----3----1----3----1----0--|
D||-------------------------------------1---------1-------|

Solo 2
e||-----------15b17r15-------------13-----------------20b22r20-----|
B||---13b15r13-------------13--13b15------13b15--13/15-------------|
G||----------------------------------------------------------------|
D||----------------------------------------------------------------|
A||----------------------------------------------------------------|
D||----------------------------------------------------------------|(x2)

e||-----------------------------------------------------------|
B||---13b15r13--11--10--11----11b13r--13b15r--11b13r--10--11--|
G||-----------------------------------------------------------|
D||-----------------------------------------------------------|
A||-----------------------------------------------------------|
D||-----------------------------------------------------------|

e||-----------------12-----------13--13b15r13--------------------|
B||---11b13--13b15-------------------------------15b16-----------|
G||----------------------14--14--------------------------15--15--|
D||--------------------------------------------------------------|
A||--------------------------------------------------------------|
D||--------------------------------------------------------------|

e||-------------13---13b15r13-----------------------|
B||--------13-------------------15b16---------------|
G||---14-----------------------------------15---15--|
D||-------------------------------------------------|
A||-------------------------------------------------|
D||-------------------------------------------------|


After Verse 2 and Solo 2, and under Solo 3
e||-------x--0----0-0--x-0----|
B||-------x--1----1-1--x-1----|
G||-------x--2----2-2--x-2----|
D||----------0----------------|
A||---------------------------|
D||--0------------------------|

Solo 3
e||--------------15b17----18b20b20b20---17p16h17---------------|
B||---13b15--13----------------------------------------18b20r--|
G||------------------------------------------------17----------|
D||------------------------------------------------------------|
A||------------------------------------------------------------|
D||------------------------------------------------------------|

e||------------------------------------------------x------12--15--12--|
B||---10\6-----------------------------------------x--13--------------|
G||---10\7---7--5--7p5-----5-----------------------x------------------|
D||---------------------7-----5--7--3--5--------0--x------------------|
A||---------------------------------------3--5------------------------|
D||-------------------------------------------------------------------|

e||----------------------13--13--13b15r10--10--10--12b13r12------10--|
B||---15--15--15b17--10--------------------------------------13------|
G||------------------------------------------------------------------|
D||------------------------------------------------------------------|
A||------------------------------------------------------------------|
D||------------------------------------------------------------------|

e||-----------13--12--13b15--10------12--12--12b13r--10--12--12b13---|
B||---13--15---------------------13----------------------------------|
G||------------------------------------------------------------------|
D||------------------------------------------------------------------|
A||------------------------------------------------------------------|
D||------------------------------------------------------------------|

e||---13--13b15r--15--13--15--15b17----------------------------0-----|
B||------------------------------------------------------------3-----|
G||------------------------------------------------------------2-----|
D||------------------------------------5-5-5-5-5-5-5-5-5-5-0---0-----|
A||--------------------------------------(Pinch Harmonics)-----------|
D||------------------------------------------------------------------|

e||---13--10---13--10---13--10--13--15------10--10--12b13r--10--15---|
B||-------------------------------------15---------------------------|
G||------------------------------------------------------------------|
D||------------------------------------------------------------------|
A||------------------------------------------------------------------|
D||------------------------------------------------------------------|

e||---15--15b17--17b19r17--15b17r15--13b15r13--13b15r13--12b13r12-10-|
B||------------------------------------------------------------------|
G||------------------------------------------------------------------|
D||------------------------------------------------------------------|
A||------------------------------------------------------------------|
D||------------------------------------------------------------------|

e||--1----3----1----3----0----0---------------------|
B||--3----1----3----1----3----2---------------------|
G||--3----0----3----0----2----2--------2-----2------|
D||--3----2----3----2----2----2------2-----2--------|
A||--1----3----1----3----0----0----0----------------|
D||--------------------------------------3-----2~~--|

2nd Verse After Solo (And it's to late...)
e||-----
B||-----
G||-----  improv. on low D5
D||--0--
A||--0--
D||--0--

- Long interlude w/ synth

- Roger Waters’ verse

Solo 4 (Over verse chords)
e||-------------------------------------------------------|
B||---17--17b20r17---13b15r-------------------------------|
G||--------------------------12--10--12--------------10---|
D||--------------------------------------12---10h12-------|
A||-------------------------------------------------------|
D||-------------------------------------------------------|

e||------------------------------------------------------------|
B||---6p5--6p5-------------------------------------------------|
G||--------------7--5--3------------------------5p3--7--7b9r7--|
D||-------------------------5--3--0---3/5--3-------------------|
A||------------------------------------------------------------|
D||------------------------------------------------------------|

e||---12--13--15--13--15--17--15--17--20--20b22r20--18--17--|
B||---------------------------------------------------------|
G||---------------------------------------------------------|
D||---------------------------------------------------------|
A||---------------------------------------------------------|
D||---------------------------------------------------------|

e||---17-15--15-13--13-12--12-10--10-8--8-7--7-5--5-3--3-1--|
B||---------------------------------------------------------|
G||---------------------------------------------------------|
D||---------------------------------------------------------|
A||---------------------------------------------------------|
D||---------------------------------------------------------|

e||---------------------------------13-12-11-10--------------|
B||---3-1----------------------------------------13-12-11-10-|
G||--------2--3--5--7--9--10--12-----------------------------|
D||----------------------------------------------------------|
A||----------------------------------------------------------|
D||----------------------------------------------------------|

e||------------------------------------------------------|
B||------------------------------------------------------|
G||---12-10-9-------------5--5--3------------------------|
D||-------------12---5h7-----------5--3------------------|
A||--------------------------------------3--5--5--7b8r5--|
D||------------------------------------------------------|

- Then play Solo 2 again

Last Part ("Who was born in a house...)  ("...Dragged Down By the stone"
e||---------1----0----1----0----1----0--  --1----0----------------||
B||---------1----0----3----1----3----1--  --3----2----------------||
G||---------2----0----2----0----2----0--  --3----2------2----2----||
D||--0-2----3----2----0----2----0----2--  --3----2-----2----2-----||
A||--0-2----3----2----0----3----0----3--  --1----0----0-----------||
D||--0-2---------2----------------------  ----------------3----2--|| End on Dm
Suggest correction
What's this?
You can suggest a correction to this tab. Community and Mods will review your correction and vote to approve or reject it.
comments
print report bad tab
1 comment total.
0 reply
blind_melon1995 10 wrote on November 4 2006, 11:27 am

not bad but it isnt in drop d it is down a whole step,but you did wel at transpsoing the chords so you dont have to tune down a step. 4 stars mate

guest
You may want to rate the tab now too:
select rating
Please do not post tabs as comments. Select "correction" instead!