Oops, an error
Loading. Please wait.

Echoes bass

version 2
version 2

Whole song

2,554 views 42 this week
24 commentsread comments
1 2 3 4 5
x 10
add to favorites
×
Save as Personal and add changes to this tab that will be seen only by you. Learn more ›
×
You can save this tab as Personal to edit and correct it or add notes. All changes will be seen only by you. Learn more »
launch autoscroll
font size
0
reset
guitar tuner
backing track
0:00
0:00
edit
Autoscroll
slow
fast
+/-
esc
set tempo
stop
-----------------------------------------------------------------------------
                                          Artist - Pink Floyd
                                         *********************
                                            Song - Echoes   
                                           ***************
                                        Album - Meddle (1971)   
                                       ***********************
                                         Tabbed By - Ayreon77
                                        **********************
-----------------------------------------------------------------------------
Tuning = Standard


INTRO
******
01:32
G|-----6-|--------|----6-|-------------------|------h--|----6----|--------6-|---|---|---|--s--|
A|-------|-6------|-6----|-4---------------4-|-4---4-6-|---------|-6--------|---|---|---|-4\6-|
D|-4-----|------4-|------|----------s---4----|---------|-4-----4-|-----4----|---|---|---|-----|
E|-------|--------|------|-----2---2\5-------|---------|---------|----------|-6-|-5-|-4-|-----|


G|-----6-|-------|------|----6-|-------|------|------------------|-------|-----6----|---|---|---|---|
D|-------|-6-----|------|------|-6-----|------|-4--------------4-|-4-5-6-|----------|---|---|---|-6-|
A|-4-----|-----4-|----4-|-4----|-----4-|----4-|----------s--4----|-------|-4------4-|---|---|---|---|
E|-------|-------|-4----|------|-------|-4----|--------2-\5------|-------|----------|-6-|-5-|-4-|---|


-----------------------
02:58
VERSE 1
********
Over Head the albertross....
G|------6------6------|------------|----------|--------|
D|------------------6-|----------6-|-----4----|---6----|
A|--4------4----------|--------6---|----------|-6------|
E|--------------------|-4--7-------|-2------4-|------4-|

The Echo of a distant tide......
G|------6-----------|-----------|--------------|--h----h----h-----|
D|------------------|---6---6-4-|--------------|-4-6--4-6--4-6--6-|
A|-4---------4h6----|-6---------|---------4----|------------------|
E|----------------4-|-----------|-2---2-5----4-|------------------|

And no one shout us.....
G|------6--------|------------|----------|-----------|
D|---------------|-6------6-6-|-4--------|---6-----7-|
A|-4--------4----|------6-----|------4---|-----------|
E|-------------4-|------------|--------2-|-4----5----|

 
-----------------------
03:43
RIFF 1
*******
G|----6--6-6---|-----------2---|-----------6---|-----------2---|-----------6---|-----------2---|
D|-------------|---------------|---------------|---------------|---------------|---------------|      
A|-4---------4-|-4-3-2-1-0---0-|-0-1-2-3-4---4-|-4-3-2-1-0---0-|-0-1-2-3-4---4-|-4-3-2-1-0---0-|
E|-------------|---------------|---------------|---------------|---------------|---------------|


G|------------------|---------|
D|-------2-----2--2-|---------|
A|-0-1-2------------|-2--2--3-|
E|----------0-------|---------|


-----------------------
04:14
VERSE 2
********
Strangers passing in the street....
G|-----6---------------------------|-----------------|-8--------8-|
D|-------------4-6------------s--6-|-4-----------4---|----6--6----|
A|-4------4--7----------s--2-4\6---|--------s--4-----|------------|
E|-------------------4-2\4---------|---2-2-2\5-----4-|------------|

And do I take you by the hand......
G|-----6-------6-|--------------------------|--h----h----h-----|
D|-----------6---|-6------------6--4--------|-4-6--4-6--4-6--6-|
A|-4------4------|------------6-------------|------------------|
E|---------------|----4--2-5---------2--2-4-|------------------|

And no one calls.....
G|----6-----6-------------|-------|-----------|
D|----------------6-----6-|-4-----|---6-----7-|
A|-4-----4----------------|-------|-----------|
E|-------------4-----4----|-----2-|-4----5----|


-----------------------
04:56
RIFF 1
*******
G|----6---|-----------2---|-----------6---|-----------2---|-----------6---|-----------2---|
D|--------|---------------|---------------|---------------|---------------|---------------|      
A|-4----4-|-4-3-2-1-0---0-|-0-1-2-3-4---4-|-4-3-2-1-0---0-|-0-1-2-3-4---4-|-4-3-2-1-0---0-|
E|--------|---------------|---------------|---------------|---------------|---------------|


G|------------------|----------------|
D|-------2-----2--2-|----------------|
A|-0-1-2------------|-2--2-2--3--3-3-|
E|----------0-------|----------------|


-----------------------
05:24
GUITAR SOLO
************

G|----6--------6----|-------------|--------------|------------------9---s----|
D|----------------6-|-----------6-|-4------4-----|---------s---4-6----11\--6-|
A|-4-----4----------|--------6----|------4---4---|--------3\6----------------|
E|------------------|-4---7-------|------------2-|-2--4-4--------------------|


G|--------6---|--------------|-------------------|----------------|
D|----------6-|-----------6--|-4---------------4-|-6----4h6---4h6-|
A|-4----4-----|---------6----|-----------s---4---|----------------|
E|------------|-4---7--------|------2---2\5------|----------------|


G|----6-----6-|-----------|----------------|------------------|
D|------------|----6----6-|-4------------4-|-6-6-6-6--7-7-7-7-|
A|-4-----4----|-----------|-----s----4-----|------------------|
E|------------|-4----4----|----2\5---------|------------------|


-----------------------
06:07
RIFF 1
*******
G|----6---|-----------2---|-----------6---|-----------2---|-----------6---|-----------2---|
D|--------|---------------|---------------|---------------|---------------|---------------|      
A|-4----4-|-4-3-2-1-0---0-|-0-1-2-3-4---4-|-4-3-2-1-0---0-|-0-1-2-3-4---4-|-4-3-2-1-0---0-|
E|--------|---------------|---------------|---------------|---------------|---------------|


G|------------------|----------------|
D|-------2-----2--2-|----------------|
A|-0-1-2------------|-2-2--2--3-3--3-|
E|----------0-------|----------------|


G|----6---|-----------2---|-----------6-----|-----------2---|-----------6-----|-----------2-----|
D|--------|---------------|-----------------|---------------|-----------------|-----------------|      
A|-4----4-|-4-3-2-1-0---0-|-0-1-2-3-4---4-4-|-4-3-2-1-0---0-|-0-1-2-3-4---4-4-|-4-3-2-1-0---0-0-|
E|--------|---------------|-----------------|---------------|-----------------|-----------------|


G|------------------|------------|
D|-------2-----2--2-|------------|
A|-0-1-2------------|-2--2--3--3-|
E|----------0-------|------------|


-----------------------
07:01
FUNKY PART
***********                                                07:25
G|------------|---Keep playing like this-until-|----------|---------Keep playing like this-until----------|
D|----h-------|----------|----------|----------|----------|----------|------------|----------|------------|
A|-2-2-4--4-4-|-2-4--4-4-|-2-4--4-4-|-2-4--4-4-|-2-4--4-4-|-2-4--4-4-|-2-2-4--4-4-|-2-4--4-4-|-2-2-4--4-4-|
E|------------|----------|----------|----------|----------|----------|------------|----------|------------|

10:15
G|----------|----Continue playing like this and start to fade out--------|-The weird wind part-----|
D|----------|--------2-2-|----------|--------2-2-|----------|--------2-2-|---I use A slide with ---|
A|-2-4--4-4-|-2-4--4-----|-2-4--4-4-|-2-4--4-----|-2-4--4-4-|-2-4--4-----|-----lots of delay-------|
E|----------|------------|----------|------------|----------|------------|--around the 19/22 frets-|


-----------------------
COOL GUITAR NOTES                                 KEY CHANGE 
******************                                ***********
17:04                                             18:44
G|-4~~~~~~~-|----------|----------|----------|    G|----------|----------|----------|----------|
D|----------|-4~~~~~~~-|----------|----------|    D|----------|-6~~~~~~~-|----------|-4~~~~~~~-| 
A|----------|----------|-5~~~~~~~-|-7~~~~~~~-|    A|-4~~~~~~~-|----------|-7~~~~~~~-|----------|
E|----------|----------|----------|----------|X7  E|----------|----------|----------|----------|X2


-----------------------
19:12
VERSE 3
********
Now this everyday you fall....
G|-----6------|------------|--------|-----|-----|
D|----------6-|----------6-|-4------|-6---|-----|
A|-4----------|--------6---|--------|-----|---3-|
E|------------|-4---7------|--------|-----|-4---|

And through the window...
G|-------6-----|-----------|-----------------|
D|-----------6-|---------6-|-4-----------4-6-|
A|-4-----------|-------6---|--------s--4-----|
E|-------------|-4--7------|----2--2\5-------|

And no-one sings me lullabys....
G|----6------6-|------------|----------------|--------|--------|
D|-------------|----6-----6-|-----4--------4-|-6--6-6-|-7--7-7-|
A|-4-----4-----|------------|---------s--4---|--------|--------|
E|-------------|-4-----4----|-2------2\5-----|--------|--------|


-----------------------
19:56
RIFF 1
*******
G|----6---|-----------2---|-----------6---|-----------2---|-----------6---|-----------2---|
D|--------|---------------|---------------|---------------|---------------|---------------|      
A|-4----4-|-4-3-2-1-0---0-|-0-1-2-3-4---4-|-4-3-2-1-0---0-|-0-1-2-3-4---4-|-4-3-2-1-0---0-|
E|--------|---------------|---------------|---------------|---------------|---------------|


G|------------------|----------------|
D|-------2-----2--2-|----------------|
A|-0-1-2------------|-2-2--2--3-3--3-|
E|----------0-------|----------------|X2


20:52
G|------6--6---|---------------2--2---|---------------6--6----|---------------2--2----|
D|-------------|----------------------|-----------------------|-----------------------|
A|-4-4-------4-|-4-3-2-1-0--0-------0-|-0-1-2-3-4--4--------4-|-4-3-2-1-0--0--------0-|
E|-------------|----------------------|-----------------------|-----------------------|


G|---------------6--6---|---------------2--2----|------------------|------------|
D|----------------------|-----------------------|-------2-----2--2-|------------|
A|-0-1-2-3-4--4-------4-|-4-3-2-1-0--0--------0-|-0-1-2------------|-2--2--3--3-|
E|----------------------|-----------------------|----------0-------|------------|


-----------------------
21:18
OUTRO
******
G|------6----|----------|------------------|-----|-----6---6---|------------|---------|
D|---------6-|--------6-|-4----------4-6---|-----|-----------6-|--------6-4-|-4---4-6-|
A|-4---------|------6---|-------s--4-------|-4-7-|-4-----------|------6-----|---4-----|
E|-----------|-4--7-----|----2-2\5-------4-|-----|-------------|-4--7-------|---------|

21:47                               Fade Out.............................................................
G|-----6-6----|---------|-------------------6-8-|----6-----------|-----|--h----|------------6-|-----------|
D|----------6-|-----6-4-|-4---4-6-------4-6-----|--------------6-|-6-4-|-4-6-6-|--------6-----|-6---4---6-|
A|-4----------|---------|---4---------6---------|-4-----4-6------|-----|-------|------6---4---|-----------|
E|------------|-4-------|---------4-7-----------|-----------4----|-----|-------|-4--7---------|-----------|

.............................................................
G|------6----|-------------------|--------------6------------|
D|---------6-|--------6--4-4---6-|--------6--------6---4---6-|
A|-4---------|------6------------|------6---4----------------|
E|-----------|-4--7--------------|-4--7----------------------|



ENJOY...........
Suggest correction
Creating personal tab
Creating personal tab
You can edit any tab online and save it as your Personal.

You can edit, replace or remove any tab part or add personal notes – all changes will be seen only by you.

Personal tabs can be accessed anytime from any device, even offline.
Learn more »
comments
print report bad tab
24 comments total. Showing first comments.
-1 reply
Sam95Mc 48 May 27, 2016 11:27 AM

The lack of timing is terrible, and listening to the song is not always helping. Notes are correct i think!

+1 reply
ayreon77 21,833 May 27, 2016 11:44 AM, edited at 03:47 pm

A tab does not do the timing its just the notes, it;s up to the person learning the song to use my notes and listen to the track figure out the timing for themselves, Its neat and easy to follow, I,m not sure why your having a hard time playing along with it, go check some of the others and you will like mine alot better, or if you think you can do better go for it.
can't please some people.

-1 reply
cobsk8b 10 May 30, 2016 03:17 PM

Some lyrics are wrong. anyway i was really helpful

guest
You may want to rate the tab now too:
select rating
Wanna post a correction for this tab? Suggest correction