Oops, an error
Loading. Please wait.

Eclipse Tab

version 2
version 2

Whole song

Interactive

4,264 views 18 this week
no commentswrite comment
1 2 3 4 5
please rate
add to favorites
launch autoscroll
font size
0
reset
how to read this tab
guitar tuner
Autoscroll
slow
fast
+/-
esc
set tempo
stop
Help us to improve Ultimate-Guitar.com Take our survey!
×
Author
                                     ECLIPSE
                            As recorded by Pink Floyd
                   (From the 1973 Album DARK SIDE OF THE MOON)

Transcribed by www.mikesguitarsite.co.uk

Gtr I (E A D G B E) - 'Clean Electric (flange + chorus)'
Gtr II (E A D G B E) - 'Clean Electric (flange + chorus)'
Gtr III (E A D G B E) - 'Distortion Electric'

 Intro
  Q=132
 3/4
  Gtr I
|-------------|--2-----2-----|-------------|--0-------2--|
|-------------|------3-------|----------3--|------3------|
|----------2--|-----------2--|-------------|-------------|
|------4------|--------------|------4------|-------------|
|--5----------|--------------|--3----------|-------------|
|-------------|--------------|-------------|-------------|
|
| Gtr II
|-------------|--------------|-------------|-------------|
|-------------|-15-----------|-------------|-15----------|
|---------14--|-----14-------|---------14--|-----14------|
|-----16------|----------16--|-----16------|---------16--|
|-17----------|--------------|-15----------|-------------|
|-------------|--------------|-------------|-------------|


|-------------|-0---------|---------0--|-------------||
|-------------|-----3-----|------------|--2----------||
|----------0--|--------0--|------------|------0------||
|------3------|-----------|-----2------|---------2---||
|--1----------|-----------|--0---------|-------------||
|-------------|-----------|------------|-------------||
|
|-------------|-0---------|------------|-------------||
|---------15--|----15-----|--------14--|-----14------||
|-------------|--------0--|-----0------|---------0---||
|-----15------|-----------|------------|-14----------||
|-13----------|-----------|-12---------|-------------||
|-------------|-----------|------------|-------------||


   Verse
||-------2------|----------2--|------2------|--0----------|
||o----------3--|-------------|-------------|------3------|
||--------------|--2----------|----------2--|----------2--|
||---0----------|------0------|-------------|-------------|
||o-------------|-------------|--3----------|-------------|
||--------------|-------------|-------------|-------------|
|
||--------------|-------------|-------------|-------------|
||o-------------|-15----------|-------------|-15----------|
||----------14--|-----14------|---------14--|-----14------|
||------16------|---------16--|-----16------|---------16--|
||o-17----------|-------------|-15----------|-------------|
||--------------|-------------|-------------|-------------|


                                                          3x
|-------------|-0-----0----|------------|-----------------||
|-------------|------------|---------2--|---------2------o||
|----------0--|-----0---0--|-----0------|-----------------||
|------3------|------------|------------|-----------2-----||
|--1----------|------------|--0---------|--0--(0)--------o||
|-------------|------------|------------|-----------------||
|
|                                                         3x
|-------------|-0----------|------------|-----------------||
|---------15--|----15------|--------14--|-----14---------o||
|-------------|---------0--|-----0------|-----------0-----||
|-----15------|------------|------------|-14--------------||
|-13----------|------------|-12---------|----------------o||
|-------------|------------|------------|-----------------||


||-----2-----|---------2--|-----2-----|--0---------|
||o-------3--|------------|-----------|------3-----|
||-----------|--2---------|--------2--|---------2--|
||--0--------|------0-----|-----------|------------|
||o----------|------------|--3--------|------------|
||-----------|------------|-----------|------------|
|
||-----------|------------|-----------|------------|
||o----------|-15---------|-----------|-15---------|
||-----------|-----14-----|-----------|-----14-----|
||--0--------|------------|-----------|------------|
||o----------|------------|-15--------|------------|
||-----------|------------|-----------|------------|


                                                         3x
|------------|-0-----0----|------------|-----------------||
|------------|------------|---------2--|--------2-------o||
|---------0--|-----0---0--|-----0------|-----------------||
|------3-----|------------|------------|-----------2-----||
|--1---------|------------|--0---------|-0--(0)---------o||
|------------|------------|------------|-----------------||
|
|                                                        3x
|------------|-0----------|------------|-----------------||
|------------|----15------|--------14--|----14----14----o||
|---------0--|---------0--|-----0------|-----------------||
|-----15-----|------------|------------|-----------------||
|-13---------|------------|-12---------|-0--------------o||
|------------|------------|------------|-----------------||


|-------------|-------------|-------------|
|-------------|-15----------|-------------|
|---------14--|-----14------|---------14--|
|-----16------|---------16--|-----16------|
|-17----------|-------------|-15----------|
|-------------|-------------|-------------|
|
|-------------|--2----------|-------------|
|----------3--|------3------|----------3--|
|------2------|----------2--|------2------|
|--0----------|-------------|-------------|
|-------------|-------------|--3----------|
|-------------|-------------|-------------|


|-------------|-------------|-0-----------|-^14------*|
|-15----------|-----15--15--|----15---15--|-^15------*|
|-----14------|-------------|-------------|-^14------*|
|---------16--|-------------|-------------|-^-0------*|
|-------------|-13----------|-------------|----------*|
|-------------|-------------|-------------|----------*|
|
|--0----------|-------------|-0-----0-----|-^-2------*|
|------3------|-------------|-------------|-^-3------*|
|----------2--|----------0--|-----0----0--|-^-2------*|
|-------------|------3------|-------------|-^-0------*|
|-------------|--1----------|-------------|-^-0------*|
|-------------|-------------|-------------|----------*|


 Fill 1
  Gtr III
                               ~
|--------|----------|----------------|--------|
|--------|----------|----------------|--------|
|--------|----------|----------------|--------|
|-0------|-0--2--4--|-4b5-(4)--4--0--|-0------|
|--------|----------|----------------|--------|
|--------|----------|----------------|--------|


|----------|----------|--------------|----------|------|
|----------|----------|--------------|----------|------|
|----------|----------|--------------|----------|------|
|-(0)------|-0--2--3--|-2--(2)\------|----------|-0----|
|----------|----------|---------0-0--|-(0)------|------|
|----------|----------|--------------|----------|------|


                                ~       ~
|----------|-------------|------------|--------|
|----------|-------------|------------|--------|
|----------|-------------|------7---7-|-7------|
|-0--2--4--|-5--7-7-(7)--|-(7)--------|--------|
|----------|-------------|------------|--------|
|----------|-------------|------------|--------|


                      ~~~~~~~~~~~~~         ~
|-------------------|--------|------------|--------|--------|
|-------------------|--------|------------|--------|--------|
|-(7)--9--9b10-(9)--|-9------|-(9)--7--9--|-7------|-(7)----|
|-------------------|--------|------------|--------|--------|
|-------------------|--------|------------|--------|--------|
|-------------------|--------|------------|--------|--------|


Tablature Legend
----------------
 h   - hammer-on
 p   - pull-off
 b   - bend
 pb  - pre-bend
 r   - bend release (if no number after the r, then release immediately)
 /\  - slide into or out of (from/to "nowhere")
 s   - legato slide
 S   - shift slide
  - natural harmonic
[n]  - artificial harmonic
n(n) - tapped harmonic
 ~   - vibrato
 tr  - trill
 T   - tap
 TP  - trem. picking
 PM  - palm muting
\n/  - tremolo bar dip; n = amount to dip
 \n  - tremolo bar down
 n/  - tremolo bar up
/n\  - tremolo bar inverted dip
 =   - hold bend; also acts as connecting device for hammers/pulls
 <>  - volume swell (louder/softer)
 x   - on rhythm slash represents muted slash
 o   - on rhythm slash represents single note slash

Misc Legend
-----------
 |  - bar
||  - double bar
||o - repeat start
o|| - repeat end
*|  - double bar (ending)
 :  - bar (freetime)
 $  - Segno
 &  - Coda
Tempo markers -  = BPM(8/16=s8/s16), where s8 = swing 8ths, s16 = swing 16ths


***************************************************************************************
* Generated using Power Tab Editor by Brad Larsen - http://powertab.guitarnetwork.org *
***************************************************************************************
Suggest correction
Give kudos to tab author, rate the tab!
1 2 3 4 5
comments
print report bad tab
guest
You may want to rate the tab now too:
select rating
Please do not post tabs as comments. Select "correction" instead!