Oops, an error
Loading. Please wait.

Empty Spaces Tab

version 3
version 3
1,177 views 3 this week
no commentswrite comment
1 2 3 4 5
please rate
add to favorites
launch autoscroll
font size
0
reset
how to read this tab
guitar tuner
Autoscroll
slow
fast
+/-
esc
set tempo
stop
Help us to improve Ultimate-Guitar.com Take our survey!
×
Author
Difficulty
intermediate
sorry that i didnt tab some riffs but i tried and i think that it soubd OK.
oh ye and the main riff on the b string might be played on the g string but i dont know.
e|-----------------------------------------------------------------------------------|
B|---------3 3 5-8-------------------------------------------------------------------|
G|-----------------------------------------------------------------------------------|
D|-----------------------5--5--------------------------------------------------------|
A|-----------------------5--5--------------------------------------------------------|
E|-----------------------3--3--------------------------------------------------------|

e|----------------------------------------------------------------------------------|
B|-------3-3-5-8--------------------------------------------------------------------|
G|------------------5b6-4v----------------------------------------------------------|
D|----------------------------------------------------------------------------------|
A|----------------------------------------------------------------------------------|
E|----------------------------------------------------------------------------------|

e|--------------------------------------------|
B|--------3 3 5 8 ----------------16[n]15[n]--|
G|--------------------------------------------|
D|--------------------------------------------|
A|--------------------------------------------|
E|--------------------------------------------|

e|---------------------------------------------------------------------------------------|
B|---------2 2 5 8 4/--------------------------------------------------------------------|
G|---------------------------------------------------------------------------------------|
D|-------------------2-------------------------------------------------------------------|
A|-------------------2-------------------------------------------------------------------|
E|-----------------------------0---------------------------------------------------------|

e|-------------------------------------------------------------------------------------|
B|---------------------------------3 3 5 8 --------------------------------------------|
G|--------5----------------------------------------------------------------------------|
D|--------5-----time 8-----------------------------------------------------------------|
A|--------3-------------------0--------------------------------------------------------|
E|-------------------------------------------------------------------------------------|

e|----------------------------------------------------------------------------------|
B|-----------sorry I cant figure out these power chords when I do I will pos them.--|
G|----------------------------------------------------------------------------------|
D|----------------------------------------------------------------------------------|
A|----------------------------------------------------------------------------------|
E|----------------------------------------------------------------------------------|

e|-------------------------------------------------|
B|------------18b20--------3 3 5 8 ----------------|
G|-------------------------------------------------|
D|--------------------------------------5-------3--|
A|--------------------------------------5-------3--|
E|--------------------------------------3-------1--|

e|--------------------------------------------------------------------------------------|
B|----------3 3 5 8 -------------8------------------------------------------------------|
G|------------------------6b7-9-----9p7-------------------------------------------------|
D|---------------------------------------9----------------------------------------------|
A|--------------------------------------------------------------------------------------|
E|--------------------------------------------------------------------------------------|

e|-------------------------------------------------------------------------------------|
B|------------3 3 5 8 -----------------------------------------------------------------|
G|-------------------------------------------------------------------------------------|
D|---------------------------5--5------------------------------------------------------|
A|---------------------------5--5------------------------------------------------------|
E|---------------------------3--3------------------------------------------------------|

e|------------------------------------------------------------------------------|
B|------------------------------------------------------------------------------|
G|---------this short riff was difficult to hear and thus I couldn’t tab it s.--|
D|------------------------------------------------------------------------------|
A|------------------------------------------------------------------------------|
E|------------------------------------------------------------------------------|

e|------------------------------------------------------------------------------------|
B|-------------------------------3 3 5 8----------------------------------------------|
G|------------------------------------------------------------------------------------|
D|-------------5----------------------------------------------------------------------|
A|-------------5—times 8--------------------------------------------------------------|
E|-------------3----------------------------------------------------------------------|
I am un sure of this riff but a pick slide on the open d string to em chord sounds ok


Solo (-please note that the tiny bit before the solo at 3:45-3:47 isnt tabbed)

e|-------------------------------------------------------------------|
B|-----------------------------------11br----------------------------|
G|-----------------------------------11br-----a few times (i think)--|
D|----------------15[n]----------------------------------------------|
A|--------10b--------------------------------------------------------|
E|-------------------------------------------------------------------|

e|-----------------------------------------------------------------|
B|---------11b---------------------------17b17b17b17r17b17b17b17r--|
G|---------11b/9(slightbend)---------------------------------------|
D|-----------------------------------------------------------------|
A|-----------------------------------------------------------------|
E|-----------------------------------------------------------------|

e|-------------------------------------------------------------|
B|---------17b12/22b23-------17b17p----17---------------22[n]--|
G|----------------------------------17----15-15h1717b----------|
D|-------------------------------------------------------------|
A|-------------------------------------------------------------|
E|-------------------------------------------------------------|

e|---------------------------------------------------------|
B|---------------------------------------------------------|
G|----------------15[n]14[n]-15[n]-14-15-16-13brbrb-15b17--|
D|---------------------------------------------------------|
A|--------7-10-12------------------------------------------|
E|---------------------------------------------------------|

e|-----------------------------------|
B|----------19---numerous times-17b--|
G|----------19-----------------------|
D|-----------------------------------|
A|-----------------------------------|
E|-----------------------------------|

Sorry that’s as far as I got on the solo Tablature Legend
----------------
 h   - hammer-on
 p   - pull-off
 b   - bend
 pb  - pre-bend
 r   - bend release (if no number after the r, then release immediately)
 /\  - slide into or out of (from/to "nowhere")
 s   - legato slide
 S   - shift slide
  - natural harmonic
[n]  - artificial harmonic
n(n) - tapped harmonic
 ~   - vibrato
 tr  - trill
 T   - tap
 TP  - trem. picking
 PM  - palm muting
\n/  - tremolo bar dip; n = amount to dip
 \n  - tremolo bar down
 n/  - tremolo bar up
/n\  - tremolo bar inverted dip
 =   - hold bend; also acts as connecting device for hammers/pulls
 <>  - volume swell (louder/softer)
 x   - on rhythm slash represents muted slash
 o   - on rhythm slash represents single note slash

Misc Legend
-----------
 |  - bar
||  - double bar
||o - repeat start
o|| - repeat end
*|  - double bar (ending)
 :  - bar (freetime)
 $  - Segno
 &  - Coda
Tempo markers -  = BPM(8/16=s8/s16), where s8 = swing 8ths, s16 = swing 16ths

tabbed by james:)
Suggest correction
Give kudos to tab author, rate the tab!
1 2 3 4 5
comments
print report bad tab
guest
You may want to rate the tab now too:
select rating
Wanna post a correction for this tab? Suggest correction