Oops, an error
Loading. Please wait.

Empty Spaces Tab

version 5
version 5
1,367 views 1 this week
no commentswrite comment
1 2 3 4 5
please rate
add to favorites
launch autoscroll
font size
0
reset
how to read this tab
guitar tuner
Tab Pro tools
  • play this tab
  • loop segment
  • change instrument
  • show fretboard
  • metronome
×
Best way to learn
"Empty Spaces"
Autoscroll
slow
fast
+/-
esc
set tempo
stop
Contributor
Difficulty
novice
b6= bend (b6.5= bend up .5 of the note)
6\ or 6/= slide
6~= vibrato
r6= release bend

Tuning is standard

Intro (I'd play it with some chorus flanger and some echo)


e]-------------------------------------------| repeat as desired
b]3~~--33/5~~---55/6~~-\5~~/6b6.5r6\5~~\33~--|
g]-------------------------------------------|
d]-------------------------------------------|
a]-------------------------------------------|
e]-------------------------------------------|

Intro Solo (flanger and echo still on)

e]17--17\15/17---17-------------------15/17-17-17b17.5r17-17--------------|
b]---------------------17~-15----17~--------------------------17~-15---17-|
g]----------------------------16-------------------------------------16---|
d]------------------------------------------------------------------------|
a]------------------------------------------------------------------------|
e]------------------------------------------------------------------------|

e]-----------------------------------------15/17-17~--17b17.5r17-17~~~-|
b]15~~--15-15/17~~--17-17/18~~--18-18/20~~-----------------------------|
g]---------------------------------------------------------------------|
d]---------------------------------------------------------------------|
a]---------------------------------------------------------------------|
e]---------------------------------------------------------------------|


Verse 1 (flanger off, high distortion)

e]---------------------------|X4
b]---------------------------|
g]---------------------------|
d]2---4---5---4---4/5\4---22-|
a]---------------------------|
e]0---2---3---2---2/3\2---00-|
  "what shall.........hunger and war"
   "shall we set a house....for more and more applause"

Bridge/Verse 2 (echo off, played along with drums)

e]------------------------------------------|
b]------------------------------------------|
g]------------------------------------------|
d]2-2-2----4-4-4----5-5-5----4-4-4----2-2-2-|
a]2-2-2----4-4-4----5-5-5----4-4-4----2-2-2-|
e]0-0-0----2-2-2----3-3-3----2-2-2----0-0-0-|
  up till "do tours of the East, contract disease"


e]------------------
b]17~~17~~17~~17~~-- play 16ths
g]------------------|
d]------------------|
a]------------------|
e]------------------|

^^i just play this because i cant figure it out haha, it has the echo and flanger back

ending

e]------
b]17/0--
g]-------|
d]-----2-|
a]-----2-|
e]-----0-|
 "our backs to the wall" hit the E at "wall"
comments
We did not receive enough feedback on this tab! Please rate:
print report bad tab
1 2 3 4 5
I want to post or [tab]
guest
You may want to rate the tab now too:
select rating
Please do not post tabs as comments. Select "correction" instead!