Oops, an error
Loading. Please wait.

Fearless bass

version 1
version 1

Whole song

  • Bass tab, with lyrics, to a classic Floyd song.

Interactive

547 views 15 this week
1 commentread comment
1 2 3 4 5
2 more votes to show rating
add to favorites
×
Save as Personal and add changes to this tab that will be seen only by you. Learn more ›
×
You can save this tab as Personal to edit and correct it or add notes. All changes will be seen only by you. Learn more »
launch autoscroll
font size
0
reset
guitar tuner
backing track
0:00
0:00
edit
Autoscroll
slow
fast
+/-
esc
set tempo
stop
Author
About this tab version
Bass tab, with lyrics, to a classic Floyd song. Was this info helpful? Yes No
One of my favorite Floyd tunes.
A good workout for pulling-off with your pinkie.

[Intro]

G|------|-----------|------|------|
D|------|-----12-12-|------|------|
A|-10---|-10--------|-10---|-10---|
E|------|-----------|------|------|


[The first "Climb"]

G|------|------|------|------|
D|------|------|------|------|
A|-10---|-10---|-10---|-10---|
E|------|------|------|------|

G|------|------|------|-----------------------|------------------------|
D|------|------|------|---------10-----8--8---|---------10-----8--8----|
A|-10---|-10---|-10---|-10--10-----10---------|-10--10-----10----------|
E|------|------|------|-----------------------|------------------------|
                         q   q   e  e  e  e      q   q   e  e  e  e


[Verse]

G||--------------|------------------------||
D||------12--12--|---------10------8--8---||  x4
A||-10-----------|-10--10------10---------||
E||--------------|------------------------||
You say the hill's too steep to climb,
Climb it!
You say you'd like to see me try,
Climb it!


G|------------|-------|
D|------------|-------|
A|--12--------|-------|
E|------------|--10---|
You pick the place and I'll choose the time

G|-12-----------|---------12-p11-h12-----------|
D|----12--------|--10--------------12-p11-h12--|
A|--------10----|------------------------------|
E|--------------|------------------------------|
And I'll climb, the hill in my own way

G|--------|---------12-p11-h12-----------|
D|--------|--10--------------12-p11-h12--|
A|--10----|------------------------------|
E|--------|------------------------------|
Just wait a while, for the right day

G|----------------------|------------|
D|------------10-----10-|--10--------|
A|--10-----12----12-----|------------|
E|----------------------|------------|
And as I rise above the treeline and the clouds

G|-------|-------|--12---------|-------|
D|--12---|--10---|-----10------|-------|
A|-------|-------|--------10---|--10---|
E|-------|-------|-------------|-------|
I look down hear the sound of the things you said today


[The second "Climb"]

G|------|------|------|------|
D|------|------|------|------|
A|-10---|-10---|-10---|-10---|
E|------|------|------|------|


[Interlude]

G|------|------|------|-----12-p11-h12---11-p9-p7--|--------9-h11--9-h11--|---------|
D|------|------|------|----------------------------|----------------------|--14\5---|
A|-10---|-10---|-10---|-10-------------------------|--10------------------|---------|
E|------|------|------|----------------------------|----------------------|---------|

G|-----------------------|------------------------|
D|---------10-----8--8---|---------10-----8--8----|
A|-10--10-----10---------|-10--10-----10----------|
E|-----------------------|------------------------|
    q   q   e  e  e  e      q   q   e  e  e  e


[Verse]

G||--------------|------------------------||
D||------12--12--|---------10------8--8---||  x4
A||-10-----------|-10--10------10---------||
E||--------------|------------------------||
Fearlessly the idiot faced the crowd, 
smiling
Merciless, the magistrate turns 'round, 
frowning

G|------------|-------|
D|------------|-------|
A|--12--------|-------|
E|------------|--10---|
And who's the fool who wears the crown

G|-12-----------|---------12-p11-h12-----------|
D|----12--------|--10--------------12-p11-h12--|
A|--------10----|------------------------------|
E|--------------|------------------------------|
Go down in your own way

G|--------|---------12-p11-h12-----------|
D|--------|--10--------------12-p11-h12--|
A|--10----|------------------------------|
E|--------|------------------------------|
And everyday is the right day

G|----------------------|------------|
D|------------10-----10-|--10--------|
A|--10-----12----12-----|------------|
E|----------------------|------------|
And as you rise above the fearlines in the frown

G|-------|-------|--12---------|-------|
D|--12---|--10---|-----12------|-------|
A|-------|-------|--------10---|--10---|
E|-------|-------|-------------|-------|
You look down, hear the sound of the faces in the crowd


[The final "climb"--you get to join in this time!
Play the bass climb on the off-measures, alternating with the guitars]

G||---------|-----------------------||
D||---------|-----------------------||
A||---------|--2--3--5--7--8--10\---||
E||--3--3---|--------------------3--||

[Also throw in a few quick slides up to G:]
G|---------------------------|
D|---------------------------|
A|--3/10\3--3/10\3---3/10\3--|
E|---------------------------|


Repeat ad lib and fade out to Liverpool Football fans singing
"You'll Never Walk Alone"



************************************

| q   Quarter note
| e   Eighth note
| p   Pull off
| h   Hammer-on
| /   Slide up
| \   Slide down

************************************

            
            
Suggest correction
Creating personal tab
Creating personal tab
You can edit any tab online and save it as your Personal.

You can edit, replace or remove any tab part or add personal notes – all changes will be seen only by you.

Personal tabs can be accessed anytime from any device, even offline.
Learn more »
Give kudos to tab author, rate the tab!
1 2 3 4 5
comments
print report bad tab
1 comment total.
0 reply
dnadel 120 Jan 31, 2017 05:53 PM

The third tab from the bottom, at "You look down, hear the sound of the faces in the crowd," the third measure should be:
G|--12----------
D|-----12-------
A|--------10----
E|--------------
Sorry

guest
You may want to rate the tab now too:
select rating
Wanna post a correction for this tab? Suggest correction