Oops, an error
Loading. Please wait.
We have Chord Pro version of Goodbye Blue Sky.
It's the closest thing you can get to the original song and it has interactive parts. Check out the tab »
×
572,934 views 915 this week
27 commentsread comments
1 2 3 4 5
x 197
add to favorites
×
Save as Personal and add changes to this tab that will be seen only by you. Learn more ›
×
You can save this tab as Personal to edit and correct it or add notes. All changes will be seen only by you. Learn more »
save as personal
new!
launch autoscroll
font size
0
reset
how to read this tab
guitar tuner
Autoscroll
slow
fast
+/-
esc
set tempo
stop
Author
Tuning
E A D G B E
GOODBYE BLUE SKY
Pink Floyd
from the album "THE WALL"

  Gtr. I

e|------------------------------------------------------|
B|------------------------------------------------------|
G|-----------0-----------------------0------------------|
D|-----4-----------4-----4-----4-----------4-----4------|
A|--5-----5-----5-----5-----5-----5-----5-----5---------|
E|------------------------------------------------------|

e|------------------------------------------------------|
B|------------------------------------------------------|
G|-----------0-----------------------0------------------|
D|-----4-----------4-----4-----4-----------4--2---------|
A|--5-----5-----5-----5-----5-----5-----5--------3--2---|
E|------------------------------------------------------|

e|------------------------------------------------------|
B|------------------------------------------------------|
G|-----5-----5------------4----4------------------------|
D|------------------------------------------------------|
A|--0-----0-----0----0---------0----0----0----0---------|
E|------------------------------------------------------|

e|------------------------------------------------------|
B|------------------------------------------------------|
G|-----5-----5------------4----4------------------------|
D|------------------------------------------------------|
A|--0-----0-----0----0---------0----0----0----0---------|
E|------------------------------------------------------|

e|------------------------------------------------------|
B|------------------------------------------------------|
G|-----5-----5------------4----4-------4-----5-----6----|
D|------------------------------------------------------|
A|--0-----0-----0----0---------0----0-----0-----0-------|
E|------------------------------------------------------|

e|------------------------------------------------------|
B|------------------------------------------------------|
G|--------0-----------0-----------0-----------0---------|
D|-----4-----4-----4-----4-----4-----4-----4-----4------|
A|--5-----------5-----------5-----------5---------------|
E|------------------------------------------------------|


  Gtr. II

e|------------------------------------------------------|
B|------------------------------------------------------|
G|------------------------------------------------------|
D|-----4-----5--(5)/-7---------4-----5-----4------------|
A|--5-----5--7--(7)/-9------5-----5---------------------|
E|------------------------------------------------------|

e|------------------------------------------------------|
B|------------------------------------------------------|
G|------------------------------------------------------|
D|-----4-----5--(5)/-7---0h2p0---4---5-----4--2---------|
A|--5-----5--7--(7)/-9---------0---0-------------3--2---|
E|------------------------------------------------------|
    
e|------------------------------------------------------|
B|------------------------------------------------------|
G|-----5-----5------------4------------------------5----|
D|------------------------------------------------------|
A|--0---------------------------------------------------|
E|------------------------------------------------------|

e|------------------------------------------------------|
B|------------------------------------------------------|
G|-----5-----5------------4-----------------------------|
D|------------------------------------------------------|
A|--0---------------------------------------------------|
E|------------------------------------------------------|

e|------------------------------------------------------|
B|------------------------------------------------------|
G|-----5-----5------------4----4-------4-----5-----6----|
D|------------------------------------------------------|
A|--0---------------------------------------------------|
E|------------------------------------------------------|

e|------------------------------------------------------|
B|------------------------------------------------------|
G|--7---------------------------------------------------|
D|-------------------------------5/7--5-----4-----------|
A|-------------------------------7/9--7-----5-----2p0---|
E|------------------------------------------------------|


  Gtrs. I & II

e|------------------------------------------------------|
B|------------------------------------------------------|
G|-----11-----9----------7----------6-----6h7p6---------|
D|--0------0-----0----0-----0----0-----0---------0------|
A|------------------------------------------------------|
E|------------------------------------------------------|

e|------------------------------------------------------|
B|------------------------------------------------------|
G|--------0-----------0-----------0-----------0---------|
D|-----4-----4-----4-----4-----4-----4-----4-----4------|
A|--2-----------2-----------2-----------2---------------|
E|------------------------------------------------------|

e|------------------------------------------------------|
B|------------------------------------------------------|
G|-----11-----9----------7----------6-----6h7p6---------|
D|--0------0-----0----0-----0----0-----0---------0------|
A|------------------------------------------------------|
E|------------------------------------------------------|

e|------------------------------------------------------|
B|------------------------------------------------------|
G|--------0-----------0-----------0-----------0---------|
D|-----4-----4-----4-----4-----4-----4-----4-----4------|
A|--2-----------2-----------2-----------2---------------|
E|------------------------------------------------------|

e|------------------------------------------------------|
B|------------------------------------------------------|
G|-----11-----9----------7----------6-----6h7p6---------|
D|--0------0-----0----0-----0----0-----0---------0------|
A|------------------------------------------------------|
E|------------------------------------------------------|

e|------------------------------------------------------|
B|------------------------------------------------------|
G|--------0-----------0-----------0-----------0---------|
D|-----4-----4-----4-----4-----4-----4-----4-----4------|
A|--2-----------2-----------2-----------2---------------|
E|------------------------------------------------------|

e|------------------------------------------------------|
B|------------------------------------------------------|
G|-----5-----5-----5-----5-----4----4-------------------|
D|------------------------------------------------------|
A|--0-----0-----0-----0-----0-------0----0----0---------|
E|------------------------------------------------------|

e|------------------------------------------------------|
B|------------------------------------------------------|
G|-----5-----5-----5-----5-----4----4-------------------|
D|------------------------------------------------------|
A|--0-----0-----0-----0-----0-------0----0----0---------|
E|------------------------------------------------------|

e|------------------------------------------------------|
B|------------------------------------------------------|
G|-----5-----5----------5-----4-----4-----2-----2-------|
D|------------------------------------------------------|
A|--0-----0-----0----0-----0-----0-----0-----0----------|
E|------------------------------------------------------|

e|------------------------------------------------------|
B|------------------------------------------------------|
G|-----0-----0------------------------------------------|
D|----------------------4-----4-----2-----2-----0-------|
A|--0-----0-----0----0-----0-----0-----0-----0-------4--|
E|------------------------------------------------------|

e|------------------------------------------------------|
B|------------------------------------------------------|
G|--------0-----------0-----------0-----------0---------|
D|-----4-----4-----4-----4-----4-----4-----4-----4------|
A|--2-----------2-----------2-----------2---------------|
E|------------------------------------------------------|

e|------------------------------------------------------|
B|------------------------------------------------------|
G|-----------0-----------------------0------------------|
D|-----4-----------4-----4-----4-----------4-----4------|
A|--5-----5-----5-----5-----5-----5-----5-----5---------|
E|------------------------------------------------------|

e|------------------------------------------------------|
B|------------------------------------------------------|
G|-----11-----9----------7----------6-----6h7p6---------|
D|--0------0-----0----0-----0----0-----0---------0------|
A|------------------------------------------------------|
E|------------------------------------------------------|

e|------------------------------------------------------|
B|------------------------------------------------------|
G|--------0-----------0-----------0-----------0---------|
D|-----4-----4-----4-----4-----4-----4-----4-----4------|
A|--2-----------2-----------2-----------2---------------|
E|------------------------------------------------------|

e|------------------------------------------------------|
B|------------------------------------------------------|
G|-----11-----9----------7----------6-----6h7p6---------|
D|--0------0-----0----0-----0----0-----0---------0------|
A|------------------------------------------------------|
E|------------------------------------------------------|

e|------------------------------------------------------|
B|------------------------------------------------------|
G|--------0-----------0-----------0-----------0---------|
D|-----4-----4-----4-----4-----4-----4-----4-----4------|
A|--2-----------2-----------2-----------2---------------|
E|------------------------------------------------------|

e|------------------------------------------------------|
B|------------------------------------------------------|
G|-----5-----5------------4----4------------------------|
D|------------------------------------------------------|
A|--0-----0-----0----0---------0----0----0----0---------|
E|------------------------------------------------------|

e|------------------------------------------------------|
B|------------------------------------------------------|
G|-----5-----5------------4----4------------------------|
D|------------------------------------------------------|
A|--0-----0-----0----0---------0----0----0----0---------|
E|------------------------------------------------------|

e|------------------------------------------------------|
B|------------------------------------------------------|
G|-----5-----5------------4----4-------4-----5-----6----|
D|------------------------------------------------------|
A|--0-----0-----0----0---------0----0-----0-----0-------|
E|------------------------------------------------------|


  Gtr. I
e|------------------------------------------------------|
B|------------------------------------------------------|
G|--------0-----------0-----------0-----------0---------|
D|-----4-----4-----4-----4-----4-----4-----4-----4------|
A|--5-----------5-----------5-----------5---------------|
E|------------------------------------------------------|

  Gtr. II
e|------------------------------------------------------|
B|------------------------------------------------------|
G|------------------------------------------------------|
D|-------------------------------5/7--5-----4-----------|
A|-------------------------------7/9--7-----5-----2p0---|
E|------------------------------------------------------|


  Gtrs. I & II
e|------------------------------------------------------|
B|--7-------5------------8-------7----------------------|
G|--7-------6------------9-------7----------------------|
D|--0----0-----0----0----0----0-----0----0--------------|
A|------------------------------------------------------|
E|------------------------------------------------------|

e|------------------------------------------------------|
B|-----7-----5------------8-------7-------7----5--------|
G|-----7-----6------------9-------7-------7----5--------|
D|--0-----0-----0----0----0----0-----0----0-------------|
A|------------------------------------------------------|
E|------------------------------------------------------|

e|------------------------------------------------------|
B|--------------------5-----------------7----5----------|
G|--------------------5-----------------7----5----------|
D|--0----0----0----0-----0----0----0----0---------------|
A|------------------------------------------------------|
E|------------------------------------------------------|

e|------------------------------------------------------|
B|--------------------5---------------------------------|
G|--------------------5---------------------------------|
D|--0----0----0----0-----0----0----0----0---------------|
A|--------------------------------(3p2p0)---------------|
E|---------------------------------------(1b)-----------|

e|------------------------------------------------------|
B|------------------------------------------------------|
G|-----------0-----------------------0------------------|
D|-----4-----------4-----4-----4-----------4-----4------|
A|--5-----5-----5-----5-----5-----5-----5-----5---------|
E|------------------------------------------------------|
                                                        (fade out)

************************************

| h  Hammer-on
| p  Pull-off
| /  Slide up 
|(n) Ghost note

************************************
Suggest correction
comments
print report bad tab
27 comments total. Showing first comments.
+5 reply
redwing_suck 302 Dec 03, 2002 07:00 PM

nice

0 reply
redwing_suck 302 Feb 17, 2003 07:00 PM

wait..... it's wrong

+1 reply
Bassman13 230 Jan 12, 2004 07:00 PM

i never noticed anything, but then again, i just wanted to learn some of it, to show off to ppl. so thanks.

guest
You may want to rate the tab now too:
select rating
Wanna post a correction for this tab? Suggest correction