Oops, an error
Loading. Please wait.
We have an official Goodbye Cruel World tab made by UG professional guitarists. Check out the tab »
×
986 views 1 this week
2 commentsread comments
1 2 3 4 5
3 more votes to show rating
add to favorites
×
Save as Personal and add changes to this tab that will be seen only by you. Learn more ›
×
You can save this tab as Personal to edit and correct it or add notes. All changes will be seen only by you. Learn more »
launch autoscroll
font size
0
reset
guitar tuner
edit
Autoscroll
slow
fast
+/-
esc
set tempo
stop
Author
Difficulty
I was wondering why nobody posted the tabs, Maybe they are too obvious ;)
Never-mind, I posted the lyrics so you can see exactly when you should play (although 
it's so simple you can play it while sleeping)

Tuning Standard

Intro:
|-----5------5-----------|
|------------------------|
|-5-------5--------------|
|------------------------|


|-----5--------------5----------------------------------------5---------------|
|---------------------------------5--------------5--------------------------5-|
|-5-------------5----------------------------------------5--------------------|
|----------------------------3-------------3---------------------------5------|
Goodbye cruel world    I'm leaving you today        Goodbye,      Goodbye,


|-----------5--|
|--------------|
|------5-------|
|--------------|
  Goodbye

(interlude) Play 2 Times

|-----5------5-----------|
|------------------------|
|-5-------5--------------|
|------------------------|

And then Play the whole (except the intro) again and end on :

|--------|
|--------|
|------5-|
|--------|

Hope you enjoy :)

            
            
Suggest correction
Creating personal tab
Creating personal tab
You can edit any tab online and save it as your Personal.

You can edit, replace or remove any tab part or add personal notes – all changes will be seen only by you.

Personal tabs can be accessed anytime from any device, even offline.
Learn more »
Give kudos to tab author, rate the tab!
1 2 3 4 5
comments
print report bad tab
2 comments total.
0 reply
GrischkaBass 136 Mar 21, 2013 02:35 AM

I did a mistake:

It is in fact instead of:

|-----5------5-----------|
|------------------------|
|-5-------5--------------|
|------------------------|

it is

|-----7------7-----------|
|------------------------|
|-5-------5--------------|
|------------------------|

MY BAD :/

0 reply
GrischkaBass 136 Mar 21, 2013 02:38 AM

and instead of:

|-----------------------|
|-----5-----------------|
|-----------------------|
|-5---------------------|

it is:

|-----------------------|
|-----7-----------------|
|-----------------------|
|-5---------------------|

guest
You may want to rate the tab now too:
select rating
Wanna post a correction for this tab? Suggest correction