Oops, an error
Loading. Please wait.

Happiest Days Of Our Lives Tab

version 1
version 1

Whole song

Interactive

9,587 views 30 this week
1 commentread comment
1 2 3 4 5
2 more votes to show rating
add to favorites
launch autoscroll
font size
0
reset
how to read this tab
guitar tuner
Autoscroll
slow
fast
+/-
esc
set tempo
stop
Help us to improve Ultimate-Guitar.com Take our survey!
×
Author
Start with helicopter
and go into this when done

Palm Mute and us alternative picking
E-----------------|-----------------|
B-----------------|-----------------|
G-----------------|-----------------|
D-0000000000000000|-000000000000000-|
A-----------------|-----------------|
E-----------------|-----------------|

E-----------------|-----------------|
B-----------------|-----------------|
G-----------------|-----------------|
D-0000000000000000|-000000000000000-|
A-----------------|-----------------|
E-----------------|-----------------|
Palm Mute
E-----------------|------------------|
B-----------------|------------------|
G-----------------|------------------|
D-----------------|------------------|
A-5-5-3-1---------|------------------|
E---------0--3----|-3333333333333333-|


E-----------------|-----------------|
B-----------------|-----------------|
G-----------------|-----------------|
D-----------------|-----------------|
A-----------------|-----------------|
E-3333333333333333|-3333333333333333|


E-----------------|------------------|
B-----------------|------------------|
G-----------------|------------------|
D-----------------|------------------|
A-----------------|-0000000000000000-|
E-3333333333333333|------------------|


E-----------------|-----------------|
B-----------------|-----------------|
G-----------------|-----------------|
D-----------------|-----------------|
A-0000000000000000|-0000000000000000|
E-----------------|-----------------|


E-----------------|-----------------|
B-----------------|-----------------|
G-----------------|-----------------|
D-----------------|-----------------|
A-0000000000000000|-3333333333333333|
E-----------------|-----------------|

E-----------------|-----------------|
B-----------------|-----------------|
G-----------------|-----------------|
D-----------------|-----------------|
A-0000000000000000|-0000000000000000|
E-----------------|-----------------|

E-----------------|-----------------|
B-----------------|-----------------|
G-----------------|-----------------|
D-----------------|-----------------|
A-----------------|-0000000000000000|
E-1111111111111111|-----------------|

E-----------------|-----------------|
B-----------------|-----------------|
G-----------------|-----------------|
D-----------------|-----------------|
A-----------------|-0000000000000000|
E-0000000000000000|-----------------|

E-----------------|-----------------|
B-----------------|-----------------|
G-----------------|-----------------|
D-----------------|-----------------|
A-0000000000000000|-5555555555555531|
E-----------------|-----------------|

E-----------------|-----------------|
B-----------------|-----------------|
G-----------------|-----------------|
D-----------------|-----------------|
A-111111111111110-|-----------------|
E----------------3|-3333333333333333|

E-----------------|
B-----------------|
G-----------------|
D-----------------|
A-3333333333333333|
E-----------------|

E-----------------|-----------------|
B-----------------|-----------------|
G-----------------|-3~--------------|
D-3~--------------|-3~--------------|
A-3~--------------|-1~--------------|
E-1~--------------|-----------------|

E-----------------|-----------------|
B-----------------|-----------------|
G-----------------|-3~--------------|
D-3~--------------|-3~--------------|
A-3~--------------|-1~--------------|
E-1~--------------|-----------------|

E-----------------|-----------------|
B-----------------|-----------------|
G-----------------|-3~--------------|
D-3~--------------|-3~--------------|
A-3~--------------|-1~--------------|
E-1~--------------|-----------------|

E-----------------|-----------------|
B-----------------|-----------------|
G-5~--------------|-5~--------------|
D-5~--------------|-5~--------------|
A-3~--------------|-3~--------------|
E-----------------|-----------------|


and then the song leads into

Another Brick in the Wall Part 2

I played this in a tribute concert

so it sounds pretty good enjoy
Suggest correction
Give kudos to tab author, rate the tab!
1 2 3 4 5
comments
print report bad tab
1 comment total.
0 reply
Thefallofman 811 Aug 24, 2007 07:15 PM

Part of the intro goes:
E|------------------------------
B|------------------------------
G|------------------------------
D|------------------------------
A|5-55-3-33-2-22----------------
E|--------------5-3-333-333-333-(etc.)
Your tab is pretty good, but there's a couple fill-ish parts like the one above that are a bit off (though you're close). Good job.

guest
You may want to rate the tab now too:
select rating
Wanna post a correction for this tab? Suggest correction