Oops, an error
Loading. Please wait.
We have an official Hey You tab made by UG professional guitarists. Check out the tab »
×
325,054 views 252 this week
31 commentsread comments
1 2 3 4 5
x 44
add to favorites
×
Save as Personal and add changes to this tab that will be seen only by you. Learn more ›
×
You can save this tab as Personal to edit and correct it or add notes. All changes will be seen only by you. Learn more »
launch autoscroll
font size
0
reset
how to read this tab
guitar tuner
backing track
0:00
0:00
edit
Autoscroll
slow
fast
+/-
esc
set tempo
stop
Author
Unregistered
e|-----------0--------0--------------0--------0--------------2--------2----|
B|--4-----------------------4-----------------------2-----------3----------|
G|--------6-----6--------6--------6-----6--------6--------4--------4-----4-|
D|-----6-----------6-----------6-----------6-----------4-------------------|
A|-------------------------------------------------------------------------|
E|-------------------------------------------------------------------------|

              v-- stop here second time.
e|-----------2--------2------------|
B|--2-----------3----------    <---| play twice from beginning.
G|--------4--------4-----4---------|
D|-----4---------------------------|
A|---------------------------------|
E|---------------------------------|

  fig 1.
e|----------0--------0-------------------0--------------0-------|
B|-4-----------------------4------------------------------------|
G|-------6-----6--------6------------6-------6---------------6--|
D|----6-----------6-------------6------------------6------------|
A|--------------------------------------------------------------|
E|--------------------------------------------------------------|

e|---------0--------0--------------4-----------4-----------4--------4-----|
B|-4----------4--------0--4-----4--------4--------4-----4-----4--------0--|
G|------6-----------------------------4-----4--------------------4--------|
D|---6-----------6-----------6-----------------------6--------------------|
A|------------------------------------------------------------------------|
E|------------------------------------------------------------------------|

e|----------0--------0--------------0--------0--------------0--------0----|
B|-4-----------------------4-----------------------4--------------------0-|
G|-------6-----6--------6--------6-----6--------6--------6-----6----------|
D|----6-----------6-----------6-----------6-----------6-----------6-------|
A|------------------------------------------------------------------------|
E|------------------------------------------------------------------------|

e|-----------4--------4--------------4--------4--------------2--------2----|
B|--4-----4-----4--------4--4-----4-----4--------4--2-----------4----------|
G|-----------------4-----------------------4--------------4--------4-----4-|
D|-----6-----------------------6-----------------------4-------------------|
A|-------------------------------------------------------------------------|
E|-------------------------------------------------------------------------|

e|----------2--------2-----4-----------------0-----------0--------0-----|
B|-2-----------4--------0--5-----5--4-----------2-----2-----2--------2--|
G|-------2--------4--------4--4-----------4--------2-----------2--------|
D|----4--------------------------------4--------------------------------|
A|----------------------------------------------------------------------|
E|----------------------------------------------------------------------|
                        end part a
----------0--------0-----|
-2-----2-----2--------0--|
----2-----------2--------|
-------------------------|
-------------------------|
-------------------------|

  don't give in......
e|----------4--------4--------------2--------2--------------0--------0----|
B|-4-----4-----4--------4--2-----2-----2--------0--4----------------------|
G|----------------4-----------------------2--------------6-----6--------6-|
D|----6-----------------------4-----------------------6-----------6-------|
A|------------------------------------------------------------------------|
E|------------------------------------------------------------------------|

e|----------0--------0--------------2--------2--------------2-----|
B|-4-----------------------2-----------3-----------2-----------3--|
G|-------6-----6--------6--------4--------4-----4--------4--------|
D|----6-----------6-----------4-----------------------4-----------|
A|----------------------------------------------------------------|
E|----------------------------------------------------------------|


[second verse]

with part a, plus 12 string accoustic playing chords(strum from high e to low e
once and only when chord is indicated below. kind'va slow strum.)

    Em9
Hey, you

Out there on you own, sitting naked by the phone,

      Bm
would you touch me?

    Em9
Hey, you,

with you ear against the wall, waiting for someone to call out,

      Bm              Dsus2
would you touch me?

                               ________ normal strums (1 each)
Hey, you,                      v v v
                               G D C      part A should end after "stone"
Would you help me to carry the stone?

Bm                      C        Em
        Open your heart, I'm coming home.


[solo]

                                                part B
        |-----------------------------------------------------------------------|
e|------------------------------------------------------------------------------|
B|------------------------------------------------------------------------------|
G|------------------------------------------------------------------------------|
D|------------------------------------------------------------------------------|
A|------------------------------------------------------------------------------|
E|--10\--0--2-2>(3)-2vvvvvv-----0--2-2>(3)-2vvvvvv-----0-0-2-2>(3)-2vvvvvvv-----|

play part B 8 times


e|-----------------------------------------------------------------------------|
B|-3>(5)=======(5)vvvvvvvvvvvvv(5)=====>3--3>(5)==(5)vvvvvvvvvvvvvvv(5)====>3--|
G|-----------------------------------------------------------------------------|
D|-----------------------------------------------------------------------------|
A|-----------------------------------------------------------------------------|
E|-----------------------------------------------------------------------------|

e|-----------------------------------------------------------------------------|
B|-3>(5)vvvvvvvvvvvvvvvvvvvv>(4)>(5)>===(4)>(5)>===(4)>(5)------3>(5)vvvvvvvv--|
G|-----------------------------------------------------------------------------|
D|-----------------------------------------------------------------------------|
A|-----------------------------------------------------------------------------|
E|-----------------------------------------------------------------------------|

e|-------------------------------------------------------------------------------|
B|--3/7vvvvvvvvvv--5-7-7>(8)>7vvvvvvvvv---5-7-7>(8)>7vvvvvvvv---5-7-7>(8)>7vvvv--|
G|-------------------------------------------------------------------------------|
D|-------------------------------------------------------------------------------|
A|-------------------------------------------------------------------------------|
E|-------------------------------------------------------------------------------|

e|---------------5--7-5-7--7>(8)vvvvvvvvvv(8)==>7>(8)--7>(8)vvvvvvvv-7---|
B|--5vvvvvv-7-8----------------------------------------------------------|
G|-----------------------------------------------------------------------|
D|-----------------------------------------------------------------------|
A|-----------------------------------------------------------------------|
E|-----------------------------------------------------------------------|

e|--7>(8)vvvvvvv(8)===>7--7>(8)vvvvvvvvv----------12-----------------------|
B|----------------------------------------15>(17)-----15>(17)vvvvvvv>(16)--|
G|-------------------------------------------------------------------------|
D|-------------------------------------------------------------------------|
A|-------------------------------------------------------------------------|
E|-------------------------------------------------------------------------|

e|------------12---15-----------12--15-------------------------|
B|---15>(17)-----------15>(17)----------15>(17)vvvvvvvvvvvvvv--|
G|-------------------------------------------------------------|
D|-------------------------------------------------------------|
A|-------------------------------------------------------------|
E|-------------------------------------------------------------|

e|----------------------------------12------------------------------------|
B|--15>(17)======>15>12----------12-----15>(17)=====>(16)>(17)=======>15--|
G|-----------------------14>(16)------------------------------------------|
D|------------------------------------------------------------------------|
A|------------------------------------------------------------------------|
E|------------------------------------------------------------------------|

e|----------14-15/17-17/19--17--19--19>(20)========(20)>19---19>(20)-17>19--|
B|--15>(17)-----------------------------------------------------------------|
G|--------------------------------------------------------------------------|
D|--------------------------------------------------------------------------|
A|--------------------------------------------------------------------------|
E|--------------------------------------------------------------------------|
                                                          v-- slow dive w/ bar
--19>17--20--19>(20)==>19--19>(20)==========(20)==>19>17--19--------------|
--------------------------------------------------------------------------|
--------------------------------------------------------------------------|
--------------------------------------------------------------------------|
--------------------------------------------------------------------------|
--------------------------------------------------------------------------|


  "But it was ...."
  w/ capo
e|-------------------------------------------------------------------------|
B|--2-----2--4----4---5----4--------2--2--2--2--2--2---2--2--2-2--2--2---4-|
G|--2-----2--4----4---4----4--------2--2--2--2--2--2---2--2--2-2--2--2---4-|
D|--2-----2--4----4---6----4--------2--2--2--2--2--2---2--2--2-2--2--2---4-|
A|-------------------------------------------------------------------------|
E|-------------------------------------------------------------------------|

e|-------------------------------------------------------------------------|
B|--4---5--4--2--2--2-2--2--2--2-2--2--2--4--4----5----4---2--2--2-2--2--2-|
G|--4---4--4--2--2--2-2--2--2--2-2--2--2--4--4----4----4---2--2--2-2--2--2-|
D|--4---6--4--2--2--2-2--2--2--2-2--2--2--4--4----6----4---2--2--2-2--2--2-|
A|-------------------------------------------------------------------------|
E|-------------------------------------------------------------------------|

                ...... brain "
e|-------------------------------|
B|--2--2--2-2--2--2---4--4--4--4-|
G|--2--2--2-2--2--2---4--4--4--4-|
D|--2--2--2-2--2--2---4--4--4--4-|
A|-------------------------------|
E|-------------------------------|


[fretless bass solo]

w/capo                                           |-----part A--------------|
e-----------0--------0--------------0--------0--------------2--------2------|
B--4-----------------------4-----------------------2-----------3------------|
G--------6-----6--------6--------6-----6--------6--------4--------4-----4---|
D-----6-----------6-----------6-----------6-----------4---------------------|
A---------------------------------------------------------------------------|
E---------------------------------------------------------------------------|

-----part A----------------------|
-----------2--------2------------|
--2-----------3--------0-    <---| repeat this figure 4 times.
--------4--------4---------------|    on the last (4th) time substitue A for this;
-----4---------------------------|
---------------------------------|
---------------------------------|


e|-----2-----2--------2--------2-----2----|
B|--2-----------3-----------2-----------3-|
G|--------4--------4-----4--------4-------|
D|-----4-----------------------4----------|
A|----------------------------------------|
E|----------------------------------------|


[last verse]

use same figure for guitar w/ capo.
Play these chords, strum once from high e to low e.

Em add9
Hey, you

out there on the road,

Em add 9
always doing what your told,

    Bm
can you help me?

Em add 9
Hey you,


out beyond the wall,

Em add 9
breaking bottles in the hall,

    Bm
can you help me?

(distorted guitar between sets of lyrics: B5  C5  C#5  D5)

Dsus 2
        Hey you,

                           --------- distorted guitar
                           |    ______________________   accoustic guitar
                           v    V       V       V    |-> regular strum, one @
                          D5\   G       D       C        dist. gutiar plays
don't tell me there no hope at all---------              root 5th of these

Bm<- backward strum, dist gutiar plays root 5th.
Together we stand,

        v-accoustic
        Em      E5<- distorted
divided we fall.



************************************

| >  Accented note
| /  Slide up
| \  Slide down

************************************

            
            
Suggest correction
Creating personal tab
Creating personal tab
You can edit any tab online and save it as your Personal.

You can edit, replace or remove any tab part or add personal notes – all changes will be seen only by you.

Personal tabs can be accessed anytime from any device, even offline.
Learn more »
comments
print report bad tab
31 comments total. Showing first comments.
0 reply
sandalsdude 10 Jan 19, 2004 07:00 PM

stellar stellar

0 reply
wEiRdDeHi 110 Jan 15, 2005 07:00 PM

it's not COMPLETELY wrong, it's just a little lower. And the harmonics are the bass, I think.

+5 reply
Scoggs 10 Oct 12, 2005 01:37 PM

at least he trys you twat

guest
Wanna post a correction for this tab? Suggest correction