Oops, an error
Loading. Please wait.
We have an official Hey You tab made by UG professional guitarists. Check out the tab »
×
275,535 views 1,143 this week
22 commentsread comments
1 2 3 4 5
x 70
add to favorites
×
Save as Personal and add changes to this tab that will be seen only by you. Learn more ›
×
You can save this tab as Personal to edit and correct it or add notes. All changes will be seen only by you. Learn more »
launch autoscroll
font size
0
reset
how to read this tab
guitar tuner
backing track
0:00
0:00
edit
Autoscroll
slow
fast
+/-
esc
set tempo
stop
Author
                                     HEY Y-U
                            As rec-rded by Pink Fl-yd
                         (Fr-m the 1979 Album THE WALL)



        Emadd9                 Bm                  Dsus2                  G
      0 2 4 0 0 0          7 9 9 7 7 7          x x 0 2 3 0          3 2 0 0 0 3

           D                    C                  BmII                  Am
      x x 0 2 3 2          x 3 2 0 1 0          x 2 4 4 3 2          x 0 2 2 1 0

          Em
      0 2 2 0 0 0

Gtr I (E A D G B E) - 'Acoustic w/flanger (see performance notes)'
Gtr II (E A D G B E) - 'Acoustic'
Gtr III (E A D G B E) - 'dist electric'
Gtr IV (E A D G B E) - 'dist electric'
Gtr V (E A D G B E) - 'dist electric'
Gtr VI (E A D G B E) - 'dist electric'


[Intro]

    Q=54
   4/4
    Gtr I
     S S S S S S S S S S S S S S S S
e||----------------------------------|
B||--7-----8-----8---7-----8-----8---|
G||------9---9-----9-----9---9-----9-|
D||----9-------9-------9-------9-----|
A||----------------------------------|
E||----------------------------------|


 1.,2.,3.                            4.
   S S S S S S S S S S S S S S S S     S S S S S S S S S S S S Q
e|-------5-----5---------5-----5----||-------5-----5---------5----||
B|-5-------6-------5-------6--------||-5-------6-------5-------6--||
G|-----7-----7---7-----7-----7---7--||-----7-----7---7-----7------||
D|---7---------------7--------------||---7---------------7--------||
A|----------------------------------||----------------------------||
E|----------------------------------||----------------------------||


[Verse 1]

                                    2/4
   S S S S S S S S S S S S S S S S   S S S S S S S S
e|---------------------------------|-----------------|
B|-7-----8-----8---7-----8-----8---|-7-----8-----8---|
G|-----9---9-----9-----9---9-----9-|-----9---9-----7-|
D|---9-------9-------9-------9-----|---9-------9-----|
A|---------------------------------|-----------------|
E|---------------------------------|-----------------|


 4/4
   S S S S S S S S S S S S S S S S   S S S S S S S S S S S S S S S S
e|-------7-------7-------7-----7---|----------------------------------|
B|-7---7-----7-----7-------7-------|-7-----8-----8---7-----8-----8----|
G|---------7---7-------7-----7---7-|-----9---9-----9-----9---9-----9--|
D|---9---------------9-------------|---9-------9-------9-------9------|
A|---------------------------------|----------------------------------|
E|---------------------------------|----------------------------------|


  2/4               4/4
   S S S S S S S S   S S S S S S S S S S S S S S S S
e|-----------------|-------7-------7-------7-----7---|
B|-7-----8-----8---|-7---7-----7-----7-------7-----7-|
G|-----9---9-----7-|---------7---7-------7-----7-----|
D|---9-------9-----|---9---------------9-------------|
A|-----------------|---------------------------------|
E|-----------------|---------------------------------|


                                    2/4
   S S S S S S S S S S S S S S S S   S S S  S S S S S
e|-------5-----5---------5-----5---|------------------|
B|-5-------7-------5-------7-------|-8--------7-----8-|
G|-----7-----7---7-----7-----7---7-|-----7--------7---|
D|---7---------------7-------------|---9--------7-----|
A|---------------------------------|-------10---------|
E|---------------------------------|------------------|


 4/4
   S  S S S S  S S S S  S S S S  S S S
e|---------------------------------------|
B|--------8------8----------8------8-----|
G|-9----9---9------9-9----9---9------7---|
D|---10-------10-------10-------10-------|
A|---------------------------------------|
E|---------------------------------------|


  Gtr II
   W
   S S S S S S S S S S S S S S S S
e|-------7-----7---------5-----5---|
B|-7---7---7-----7-5---5---5-------|
G|-----------7---------------5---7-|
D|---9---------------7-------------|
A|---------------------------------|
E|---------------------------------|


                                                               Emadd9
   W                                 H               Q       E. S
                                                                |
                                                                /

   S S S S S S S S S S S S S S S S   S S S S S S S S S S S S Q
e|---------------------------------|-------5-----5---------5--------||
B|-------8-----8---7-----8-----8---|-5-------6-------5-------6------||
G|-9---9---9-----9-----9---9-----9-|-----7-----7---7-----7----------||
D|---9-------9-------9-------9-----|---7---------------7------------||
A|---------------------------------|--------------------------------||
E|---------------------------------|--------------------------------||


[Verse 2]

                                                     Bm
                                    2/4
   W                                 +Q..             S
   |                                  |               |
   /                                  /               /

   S S S S S S S S S S S S S S S S    S   S S S S S S S
e|---------------------------------|--------------------|
B|-7-----8-----8---7-----8-----8---|--7-------8-----8---|
G|-----9---9-----9-----9---9-----9-|--------9---9-----7-|
D|---9-------9-------9-------9-----|------9-------9-----|
A|---------------------------------|--------------------|
E|---------------------------------|--------------------|


                                    Emadd9
  4/4
   H.                       +E.     S   W
   |                         |      |   |
   /                         /      /   /

   S  S S S S S S S S S S S  S  S S S   S S S S S S S S S S S S S S S S
e|--------7-------7-------7-------7---|----------------------------------|
B|-7----7-----7-----7--------7--------|-7-----8-----8---7-----8-----8----|
G|----------7---7-------7-------7---7-|-----9---9-----9-----9---9-----9--|
D|----9---------------9---------------|---9-------9-------9-------9------|
A|------------------------------------|----------------------------------|
E|------------------------------------|----------------------------------|


                    Bm                                   Dsus2
  2/4                  4/4
   +Q..             S   H..                           +S S
    |               |   |                              | |
    /               /   /                              / / 

    S   S S S S S S S   S   S S S S S S S S S S S S S  S S
e|--------------------|---------7-------7-------7------7---|
B|--7-------8-----8---|-7-----7-----7-----7-------7------7-|
G|--------9---9-----7-|-----------7---7-------7-----7------|
D|------9-------9-----|-----9---------------9--------------|
A|--------------------|------------------------------------|
E|--------------------|------------------------------------|


                                     G        D
                                    2/4
   W                                 Q        Q
   |                                 |        |
   /                                 /        /

   S S S S S S S S S S S S S S S S   S S S  S S S S S
e|-------5-----5---------5-----5---|------------------|
B|-5-------7-------5-------7-------|-8--------7-----8-|
G|-----7-----7---7-----7-----7---7-|-----7--------7---|
D|---7---------------7-------------|---9--------7-----|
A|---------------------------------|-------10---------|
E|---------------------------------|------------------|


   C                                    BmII
  4/4
   H.                          +E.       S
   |                            |        |
   /                            /        /

   S   S S S S  S S S S  S S S  S   S S  S
e|-------------------------------------------|
B|---------8------8----------8--------8--7---|
G|-9-----9---9------9-9----9----9--------7---|
D|----10-------10-------10---------10----9---|
A|-------------------------------------------|
E|-------------------------------------------|


             Am     Em
    H         Q..    S     W
    |         |      |     |
    /         /      /     / 

    Q..    S  Q..    S     W
e|-^7--------^5--------|------------------||
B|-^7------5-^5--------|------------------||
G|-^7------5-^5------9-|--(9)-------------||
D|-^9------7-^7------9-|--(9)-------------||
A|---------------------|---7--------------||
E|---------------------|---7--------------||
 |
 | Gtr VI
 |  W                      H     Q  E  E
e|---------------------|------------------||
B|---------------------|------------------||
G|---------------------|------------------||
D|---------------------|------------------||
A|---------------------|--------------10\-||
E|---------------------|--------------10\-||


 Guitar S-l-
  Gtr III
                   ~~~~~~~~~~                                    ~~~~~~~~~~~~~~~~~~~~~~~~~~~~
   a    +Q        +Q     +E.    S   +E.    +S    a    +Q        +Q     +Q.              +S  +S
e|---------------------------------------------|------------------------------------------------|
B|---------------------------------------------|------------------------------------------------|
G|-7b9==(7)-------(7)----(7)---[7]--(7)r===(7)-|-7b9==(7)-------(7)----(7)--------------(7)r(7)-|
D|---------------------------------------------|------------------------------------------------|
A|---------------------------------------------|------------------------------------------------|
E|---------------------------------------------|------------------------------------------------|
 |
 | Gtr IV
 |                                   \2                                           \2
 |                 ~~~                                           ~~~
 |       E  S S   +H                +Q                 E  S S   +H               +Q
e|---------------------------------------------|------------------------------------------------|
B|---------------------------------------------|------------------------------------------------|
G|-------4--4-4---(4)---------------(4)--------|-------4--4-4---(4)--------------(4)------------|
D|---------------------------------------------|------------------------------------------------|
A|---------------------------------------------|------------------------------------------------|
E|---------------------------------------------|------------------------------------------------|
 |
 | Gtrs V, VI
 |                    ~~~               ~~~                         ~~~              ~~~
 |       E  S S    S  E.  E  S  S    S  E.             E  S S    S  E.  E  S S    S  E.
e|---------------------------------------------|------------------------------------------------|
B|---------------------------------------------|------------------------------------------------|
G|---------------------------------------------|------------------------------------------------|
D|-------5--7-7b9-----7---5--7--7b9-----7------|-------5--7-7b9-----7---5--7-7b9-----7----------|
A|---------------------------------------------|------------------------------------------------|
E|-------0--2-2b3-----2---0--2--2b3-----2------|-------0--2-2b3-----2---0--2-2b3-----2----------|
         E  S S    S  E.  E  S  S    S  E.             E  S S    S  E.  E  S S    S  E.


         ~~~
   a    +H             +S   E     S    +S   a     +S     +S  +S
e|-----------------------------------------------------------------|
B|-----------------------------------------------------------------|
G|-7b9==(7)------------(7)r-7b9---7b9==(7)r-7pb8==(7)b9==(7)r(7)---|
D|-----------------------------------------------------------------|
A|-----------------------------------------------------------------|
E|-----------------------------------------------------------------|
 |
 |       ~~~
 |       W
e|-----------------------------------------------------------------|
B|-----------------------------------------------------------------|
G|-------5---------------------------------------------------------|
D|-----------------------------------------------------------------|
A|-----------------------------------------------------------------|
E|-----------------------------------------------------------------|
 |
 |                  ~~~                            ~~~~~~
 |       E  S S   S E.  E       S S     S          E.
e|-----------------------------------------------------------------|
B|-----------------------------------------------------------------|
G|-------5--7-7b9---7---5-------7-7b9--------------7---------------|
D|-----------------------------------------------------------------|
A|-------0--2-2b3---2---0-------2-2b3--------------2---------------|
E|-----------------------------------------------------------------|
         E  S S   S E.  E       S S     S          E.


   ~~~~~~~~~~~~~~~~~~~~~~~~~                            ~~~~
                        |--3---|
   E.     a     +S     +E      S    +S  T T  Q         +Q
e|-----------------------------------------------------------------|
B|-----------------------------------------------------------------|
G|-7pb9---7pb8==(7)b9==(7)r----7pb9r(7)-7s9s11--------(11)---------|
D|-----------------------------------------------------------------|
A|-----------------------------------------------------------------|
E|-----------------------------------------------------------------|
 |
 | ~~~~~~~~~~~~~~~~~~~~~~~~~                 ~~~
 | Q                   +E.              T T  Q.               +E
e|-----------------------------------------------------------------|
B|-----------------------------------------------------------------|
G|-5-------------------(5)--------------4s5s=7----------------(7)\-|
D|-----------------------------------------------------------------|
A|-----------------------------------------------------------------|
E|-----------------------------------------------------------------|
 |
 |                          ~~~                            ~~~
 | E    S        S      S   E.               E  S S     S  E.
e|-----------------------------------------------------------------|
B|-----------------------------------------------------------------|
G|-5----7--------7b9--------7----------------5--7-7b9------7-------|
D|-----------------------------------------------------------------|
A|-0----2--------2b3--------2----------------0--2-2b3------2-------|
E|-----------------------------------------------------------------|
   E    S        S      S   E.               E  S S     S  E.


                      ~~~~                   ~~~~                          ~~~~
   E  S  S      +S   +E. E   S  S      +S   +E.        E   S  S      +S   +E. E   S  S    S   S   S  S
e|---------------------------------------------------|-------------------------------------------------|
B|---------------------------------------------------|-----------------------------------10h=12--10-12-|
G|-9-11-11b12==(11)r(11)-9--11-11b12==(11)r(11)------|-9--11-11b12==(11)r(11)-9--11-12-----------------|
D|---------------------------------------------------|-------------------------------------------------|
A|---------------------------------------------------|-------------------------------------------------|
E|---------------------------------------------------|-------------------------------------------------|
 |
 | ~~~~~~~~~~~~~~~~~~~~~~~~~~~~~~~~~~~~~~~~~~~~~~~~~~~~~~~~~~~~~~~~~~~~~~~~~~~~~~~~~~~~~~
 | E  S  S      +Q       Q.                     +E     E.     S      +Q       E.    +S   +S   S   S  S
e|---------------------------------------------------|-------------------------------------------------|
B|---------------------------------------------------|-------------------------------------------------|
G|-4--4--4------(4)------4----------------------(4)\-|-4------4------(4)------4-----(4)--(4)s=5--/6-/7-|
D|---------------------------------------------------|-------------------------------------------------|
A|---------------------------------------------------|-------------------------------------------------|
E|---------------------------------------------------|-------------------------------------------------|
 |
 |                    ~~~~                   ~~~~                          ~~~~               ~~~
 | E  S  S       S    E. E   S  S       S    E.        E   S  S       S    E. E   S  S    S   E.
e|---------------------------------------------------|-------------------------------------------------|
B|---------------------------------------------------|-------------------------------------------------|
G|---------------------------------------------------|-------------------------------------------------|
D|-5--7--7b9----------7--5---7--7b9----------7-------|-5---7--7b9----------7--5---7--7b9------7--------|
A|---------------------------------------------------|-------------------------------------------------|
E|-0--2--2b3----------2--0---2--2b3----------2-------|-0---2--2b3----------2--0---2--2b3------2--------|
   E  S  S       S    E. E   S  S       S    E.        E   S  S       S    E. E   S  S    S   E.


                                                                       \0.5/
    ~~~~~~~~~~~~~~~~~~                      ~~~~~~~~~~~~~~~~~~
                   |--------3--------|                     |-----3-----|
    Q             +E      E   S      S      Q             +E     +E    E
e|--------------------------------------------------------------------12-------|
B|-12pb13========(12)----12r-12pb13-12pb13-12pb13========(12)---(12)r----------|
G|-----------------------------------------------------------------------------|
D|-----------------------------------------------------------------------------|
A|-----------------------------------------------------------------------------|
E|-----------------------------------------------------------------------------|
 |
 |  ~~~~~~~~~~~~~~~~~~                      ~~~~~~~~~~~~~~~~~~
 |                 |----3-----|
 |  Q             +E      E   E             Q             +S  E              S
e|-----------------------------------------------------------------------------|
B|-----------------------------------------------------------------------------|
G|--9-------------(9)-----9---9-------------9-------------(9)-9s=============8-|
D|-----------------------------------------------------------------------------|
A|-----------------------------------------------------------------------------|
E|-----------------------------------------------------------------------------|
 |
 |                    ~~~                                     ~~~
 |  E      S S     S  E.                    E      S S     S  E.
e|-----------------------------------------------------------------------------|
B|-----------------------------------------------------------------------------|
G|--5------7-7b9------7---------------------5------7-7b9------7----------------|
D|-----------------------------------------------------------------------------|
A|--0------2-2b3------2---------------------0------2-2b3------2----------------|
E|-----------------------------------------------------------------------------|
    E      S S     S  E.                    E      S S     S  E.


    ~~~~~~~~~~~~~~~~~~~~~~~           ~~~~~~~~~~~~~~~~~~~
    Q              +S   S  +S   +S    Q             +S    E      S
e|--------------------------------------------------------------12-|
B|-12pb13=========(12)-12-(12)r(12)--12pb13========(12)r-15b17-----|
G|-----------------------------------------------------------------|
D|-----------------------------------------------------------------|
A|-----------------------------------------------------------------|
E|-----------------------------------------------------------------|
 |
 |  ~~~~~~~                        ~~
 |  E.        S    +S   S   S    T T  Q              S    E      S
e|-----------------------------------------------------------------|
B|-----------------------------------------------------------------|
G|--9--------/9----(9)--9s==8----8s9s11------------------11----/12-|
D|-----------------------------------------------------------------|
A|-----------------------------------------------------------------|
E|-----------------------------------------------------------------|
 |
 |                      ~~~                               ~~~~~
 |  E      S  S     S   E.            E      S S     S    E.
e|-----------------------------------------------------------------|
B|-----------------------------------------------------------------|
G|--5------7--7b9-------7-------------5------7-7b9--------7--------|
D|-----------------------------------------------------------------|
A|--0------2--2b3-------2-------------0------2-2b3--------2--------|
E|-----------------------------------------------------------------|
    E      S  S     S   E.            E      S S     S    E.


            ~~~~~                                   ~~~~~~
            |---3----|  |-----3-----|  |----3----|
    E      +E        S  S     S     S  S      S  S  Q             S      +S  +T   +T   T  T
e|---------------------------12----15--------12-15---------------------------------------------|
B|-15b17==(15)r-----15-15b17----------15pb17-------15pb17--------15b17==(15)(15)r(15)p12-------|
G|---------------------------------------------------------------------------------------14b16-|
D|---------------------------------------------------------------------------------------------|
A|---------------------------------------------------------------------------------------------|
E|---------------------------------------------------------------------------------------------|
 |
 |  ~~~~~~
 |  H                                               Q            +S       E            S
e|---------------------------------------------------------------------------------------------|
B|---------------------------------------------------------------------------------------------|
G|-12----------------------------------------------12-----------(12)-----12s==========11-------|
D|---------------------------------------------------------------------------------------------|
A|---------------------------------------------------------------------------------------------|
E|---------------------------------------------------------------------------------------------|
 |
 |                              ~~~                                       ~~~~
 |  E       S   S       S       E.                  E     S S     S       E.
e|---------------------------------------------------------------------------------------------|
B|---------------------------------------------------------------------------------------------|
G|---------------------------------------------------------------------------------------------|
D|--5-------7---7b9-------------7-------------------5-----7-7b9-----------7--------------------|
A|---------------------------------------------------------------------------------------------|
E|--0-------2---2b3-------------2-------------------0-----2-2b3-----------2--------------------|
    E       S   S       S       E.                  E     S S     S       E.


               ~~~~~~~~~~~~~~~~
     |--3---|
    +S   S  S  E          +S    E     S     S      +S   S  S    S  S   S  S
e|---------12------------------------------------------14-15---17s19--17-19---|
B|------12----15b17======(15)r-15b17-15b16-15pb17r(15)------------------------|
G|-(14)-----------------------------------------------------------------------|
D|----------------------------------------------------------------------------|
A|----------------------------------------------------------------------------|
E|----------------------------------------------------------------------------|
 |
 |   ~~~~~~~~~~~~~~~~~~~~~~~~~~~~~~~~~~~~~~~~~~~~~~
 |   H                                      Q.                         S  S
e|----------------------------------------------------------------------------|
B|----------------------------------------------------------------------------|
G|--12-------------------------------------12-------------------------12s14---|
D|----------------------------------------------------------------------------|
A|----------------------------------------------------------------------------|
E|----------------------------------------------------------------------------|
 |
 |                              ~~~~~                              ~~~
 |   E         S     S     S    E.          E           S  S    S  E.
e|----------------------------------------------------------------------------|
B|----------------------------------------------------------------------------|
G|----------------------------------------------------------------------------|
D|---5---------7-----7b9--------7-----------5-----------7--7b9-----7----------|
A|----------------------------------------------------------------------------|
E|---0---------2-----2b3--------2-----------0-----------2--2b3-----2----------|
     E         S     S     S    E.          E           S  S    S  E.


                                 ~~~~~~
                                                                  |-3-|
    E       S  S    +S   +E   S  Q             E          a       +E   S
e|-19pb20==19-19---(19)-(19)r19-19pb20--------19b20-----(19)pb21r(19)p17-|
B|-----------------------------------------------------------------------|
G|-----------------------------------------------------------------------|
D|-----------------------------------------------------------------------|
A|-----------------------------------------------------------------------|
E|-----------------------------------------------------------------------|
 |
 |                                                   \1
 |  ~~~~~~~~~~~~~~~~~~~~~~~~~~~~~~~~~~~~~~~~~~~~~~~~
 |  Q               +S    E.     Q            +S     E.
e|-----------------------------------------------------------------------|
B|-----------------------------------------------------------------------|
G|-14--------------(14)--14-----14-----------(14)---14-------------------|
D|-----------------------------------------------------------------------|
A|-----------------------------------------------------------------------|
E|-----------------------------------------------------------------------|
 |
 |                        ~~~~~                      ~~~
 |  E       S  S     S    E.     E     S S     S     E.
e|-----------------------------------------------------------------------|
B|-----------------------------------------------------------------------|
G|--5-------7--7b9--------7------5-----7-7b9---------7-------------------|
D|-----------------------------------------------------------------------|
A|--0-------2--2b3--------2------0-----2-2b3---------2-------------------|
E|-----------------------------------------------------------------------|
    E       S  S     S    E.     E     S S     S     E.


       ~~~~~~~~~~~                  ~~~~~~~                             ~~~
                                                         |---3----|
    S  S       E       +S   E  +S   Q              E     +S   +S   S    H.        Q
e|-19-19pb20==19------(19)-19r(19)-19pb20=========19----(19)r(19)p17-|-19---------------||
B|-------------------------------------------------------------------|------------------||
G|-------------------------------------------------------------------|------------------||
D|-------------------------------------------------------------------|------------------||
A|-------------------------------------------------------------------|------------------||
E|-------------------------------------------------------------------|------------------||
 |
 |                                                                                \2.5
 |             ~~~                          ~~                          ~~~
 |  e          Q.                   e       Q             E             H.       +Q
e|-------------------------------------------------------------------|------------------||
B|-------------------------------------------------------------------|------------------||
G|-14---------14-------------------14------14------------14\---------|-12-------(12)----||
D|-------------------------------------------------------------------|------------------||
A|-------------------------------------------------------------------|------------------||
E|-------------------------------------------------------------------|------------------||
 |
 |                                                                                \2.5
 |                          ~~~                      ~~~~~~~~~~~~~~~~~~~~~~       ~~~~~~
 |  E          S  S     S   E.      E       S S    S E.                 H.       +Q
e|-------------------------------------------------------------------|------------------||
B|-------------------------------------------------------------------|------------------||
G|--5----------7--7b9-------7-------5-------7-7b9----7---------------|--4--------(4)----||
D|-------------------------------------------------------------------|------------------||
A|--0----------2--2b3-------2-------0-------2-2b3----2---------------|------------------||
E|-------------------------------------------------------------------|--0--------(0)----||
    E          S  S     S   E.      E       S S    S E.                 H.       +Q


[Bridge]
   
    3/4              4/4                     2/4
     Gtr II
      E. S E. S E E   E E E S S E E E S S  3x E S S E S S
e||--^0--0-2--2-3-2-|-0-0-0-0-0-0-0-0-0-0--||-0-0-0-2-2-2-|
B||--^1--1-3--3-0-3-|-1-1-1-1-1-1-1-1-1-1--||-1-1-1-3-3-3-|
G||--^0--0-2--2-0-2-|-0-0-0-0-0-0-0-0-0-0--||-0-0-0-2-2-2-|
D||--^2--2-0--0-0-0-|-2-2-2-2-2-2-2-2-2-2--||-2-2-2-0-0-0-|
A||--^3--3------2---|-3-3-3-3-3-3-3-3-3-3--||-3-3-3-------|
E||-------------3---|----------------------||-------------|


  Em
  4/4
   Gtr II
   W                                 W
   |
   /

  Gtr I
   S S S S S S S S S S S S S S S S   S S S S S S S S S S S S S S S S
e|---------------------------------|-------5-----5---------5-----5----|
B|-7-----8-----8---7-----8-----8---|-5-------6-------5-------6--------|
G|-----9---9-----9-----9---9-----9-|-----7-----7---7-----7-----7---7--|
D|---9-------9-------9-------9-----|---7---------------7--------------|
A|---------------------------------|----------------------------------|
E|---------------------------------|----------------------------------|


                                      1.,2.
     W                                 W
     S S S S S S S S S S S S S S S S   S S S S S S S S S S S S S S S S
e||----------------------------------|-------5-----5---------5-----5----||
B||--7-----8-----8---7-----8-----8---|-5-------6-------5-------6--------||
G||------9---9-----9-----9---9-----9-|-----7-----7---7-----7-----7---7--||
D||----9-------9-------9-------9-----|---7---------------7--------------||
A||----------------------------------|----------------------------------||
E||----------------------------------|----------------------------------||


  3.
                                  Emadd9
   H               Q       E.     S
                                  |
                                  /

   S S S S S S S S S S S S S  S S S
e|-------5-----5---------5------5------||
B|-5-------6-------5-------6-----------||
G|-----7-----7---7-----7------7---7----||
D|---7---------------7-----------------||
A|-------------------------------------||
E|-------------------------------------||


[Verse 3]
                                                         Bm
                                       2/4
   H..                           +S S   +Q..             S
   |                              | |    |               |
   /                              / /    /               /

   S   S S S S S S S S S S S S S  S S    S   S S S S S S S
e|------------------------------------|--------------------|
B|-7-------8-----8---7-----8------8---|--7-------8-----8---|
G|-------9---9-----9-----9---9------9-|--------9---9-----7-|
D|-----9-------9-------9-------9------|------9-------9-----|
A|------------------------------------|--------------------|
E|------------------------------------|--------------------|


                                    Emadd9
  4/4
   H..                           +S S
   |                              | |
   /                              / /

   S   S S S S S S S S S S S S S  S S
e|---------7-------7-------7------7-----|
B|-7-----7-----7-----7-------7----------|
G|-----------7---7-------7-----7----7---|
D|-----9---------------9----------------|
A|--------------------------------------|
E|--------------------------------------|


                                                        Bm
                                       2/4
   H..                           +S S   Q..             S
   |                              | |   |               |
   /                              / /   /               /

   S   S S S S S S S S S S S S S  S S   S   S S S S S S S
e|------------------------------------|-------------------|
B|-7-------8-----8---7-----8------8---|-7-------8-----8---|
G|-------9---9-----9-----9---9------9-|-------9---9-----7-|
D|-----9-------9-------9-------9------|-----9-------9-----|
A|------------------------------------|-------------------|
E|------------------------------------|-------------------|


                                      Dsus2
  4/4
   H..                              S S
   |                                | |
   /                                / /

   S   S S S S S S S S  S S S  S  S S S
e|---------7-----7----------7-------7---|
B|-7---------7-----7-7----7----7------7-|
G|-------7-----7------------------7-----|
D|-----9----------------9---------------|
A|--------------------------------------|
E|--------------------------------------|
 |
 | Gtr III
 | H                 E.     S +S  S S S
e|--------------------------------------|
B|--------------------------------------|
G|--------------------------------------|
D|--------------------------4-(4)-5-6-7-|
A|--------------------------2-(2)-3-4-5-|
E|--------------------------------------|


                                        G        D
                                      2/4
   W                                    Q        Q
   |                                    |        |
   /                                    /        / 

   S   S S S S S S S S S S S S S S  S   S S S  S S S S S
e|---------5-----5---------5-----5----|--------------------|
B|-5---------7-------5-------7--------|-8--------7-----8---|
G|-------7-----7---7-----7-----7----7-|-----7--------7-----|
D|-----7---------------7--------------|---9--------7-------|
A|------------------------------------|-------10-----------|
E|------------------------------------|--------------------|
 |
 | H..                           E      Q        Q
e|------------------------------------|-3--------2---------|
B|------------------------------------|-3--------3---------|
G|-7-----------------------------7\---|-0--------2---------|
D|-7-----------------------------7\---|-0--------0---------|
A|-5-----------------------------5\---|----------0---------|
E|------------------------------------|-3------------------|


   C                                       Bm
  4/4
   H..                                 +S   S
   |                                    |   |
   /                                    /   /

   S    S S S S  S S S  S   S S S S  S  S   S
e|--------------------------------------------|
B|----------8------8------------8-------8---7-|
G|-9------9---9------9--9-----9---9---------7-|
D|-----10-------10---------10-------10------9-|
A|--------------------------------------------|
E|--------------------------------------------|
 |
 | H                   +S   S S S E     E
e|--------------------------------------------|
B|-5-------------------(5)--------5-----5\----|
G|-5-------------------(5)--5-----5-----5\----|
D|-5-------------------(5)--5-----5-----5\----|
A|-3-------------------(3)------3-3-----3\----|
E|--------------------------------------------|


            Am            Em
    Q.    S  S  Q.     S   S     W
    |     |  |  |      |   |     |
    /     /  /  /      /   /     /

    Q..      S  Q..        S     W
e|-^7----------^5------------|---------*|
B|-^7--------5-^5------------|---------*|
G|-^7--------5-^5----------9-|--(9)----*|
D|-^9--------7-^7----------9-|--(9)----*|
A|---------------------------|---7-----*|
E|---------------------------|---7-----*|
 |
 |  H           Q.     E         W
e|---------------------------|---------*|
B|---------------------------|---------*|
G|--4-----------2------------|---------*|
D|--4-----------2------------|---------*|
A|--2-----------0------------|---------*|
E|--------------------12\----|---0-----*|




Tablature Legend
********************************************************************************
 h   - hammer-on
 p   - pull-off
 b   - bend
 pb  - pre-bend
 r   - bend release (if no number after the r, then release immediately)
 /\  - slide into or out of (from/to "nowhere")
 s   - legato slide
 S   - shift slide
  - natural harmonic
[n]  - artificial harmonic
n(n) - tapped harmonic
 ~   - vibrato
 tr  - trill
 T   - tap
 TP  - trem. picking
 PM  - palm muting
\n/  - tremolo bar dip; n = amount to dip
 \n  - tremolo bar down
 n/  - tremolo bar up
/n\  - tremolo bar inverted dip
 =   - hold bend; also acts as connecting device for hammers/pulls
 <>  - volume swell (louder/softer)
 x   - on rhythm slash represents muted slash
 o   - on rhythm slash represents single note slash
*********************************************************************************

Misc Legend
*********************************************************************************
 |  - bar
||  - double bar
||o - repeat start
o|| - repeat end
*|  - double bar (ending)
 :  - bar (freetime)
 $  - Segno
 &  - Coda
*********************************************************************************

Tempo markers -  = BPM(8/16=s8/s16), where s8 = swing 8ths, s16 = swing 16ths

            
            
Suggest correction
Creating personal tab
Creating personal tab
You can edit any tab online and save it as your Personal.

You can edit, replace or remove any tab part or add personal notes – all changes will be seen only by you.

Personal tabs can be accessed anytime from any device, even offline.
Learn more »
comments
print report bad tab
22 comments total. Showing first comments.
-1 reply
redwing_suck 302 Feb 17, 2003 07:00 PM

too complicated..... whats with all of the "shift slides" above every note?

+1 reply
loomis559 10 Jun 29, 2005 08:00 PM

cause thats the song,

0 reply
TheMutts 10,516 Sep 15, 2005 08:00 PM

hey redwing, those are shift slides, the S means its a SIXTENTH NOTE... its the timing not any notation.

guest
You may want to rate the tab now too:
select rating
Wanna post a correction for this tab? Suggest correction