Oops, an error
Loading. Please wait.

High Hopes Acoustic Tab

19,505 views 36 this week
no commentswrite comment
1 2 3 4 5
accurate
x 7
add to favorites
launch autoscroll
font size
0
reset
how to read this tab
guitar tuner
Tab Pro tools
  • play this tab
  • loop segment
  • change instrument
  • show fretboard
  • metronome
Autoscroll
slow
fast
+/-
esc
set tempo
stop
Contributor
Difficulty
intermediate
MyGuitar4Life presents :

Pink Floyd

High Hopes - as seen / heard at the "Remember that night" concert

Outro acoustic solo

--------------------------------------------
This is the accompanying tab for the "High Hopes Live - Outro solo" video lesson.

Enjoy playing!


    D#  D   C  A#  G     G G# G  F   D#  F  G
e|--11--10--8--------------------------------------|
B|-------------11--8------8h9p8--6----4--6-6s8-----|
G|-------------------------------------------------|
D|-------------------------------------------------|
A|-------------------------------------------------|
E|-------------------------------------------------|

-----------------------------------------------------

e|--11--10--8--------------------------------------|
B|-------------11--8------9s6--6----4--3-----------|
G|----------------------------------------5--------|
D|-------------------------------------------------|
A|-------------------------------------------------|
E|-------------------------------------------------|

-----------------------------------------------------

e|-------------------------------------------------|
B|-----4--3--4-------------4--3--4-----------------|
G|--5----------3--5-----5-----------3--0-----------|
D|-------------------------------------------------|
A|-------------------------------------------------|
E|-------------------------------------------------|

-----------------------------------------------------

e|-------------------------------------------------|
B|-----------3--4--6--6s8~8~8~8--9--6--8~~--8~~----|
G|-----3--5----------------------------------------|
D|--5----------------------------------------------|
A|-------------------------------------------------|
E|-------------------------------------------------|

-----------------------------------------------------

e|-----------8--8p6--8~~--6------------------------|
B|----6--8~~-----------------8--6----4--6--6s8-----|
G|-------------------------------------------------|
D|-------------------------------------------------|
A|-------------------------------------------------|
E|-------------------------------------------------|

-----------------------------------------------------

e|--8p6-8--10--10s11--11--10--8--6-----------------|
B|----------------------------------11~~-----------|
G|-------------------------------------------------|
D|-------------------------------------------------|
A|-------------------------------------------------|
E|-------------------------------------------------|

-----------------------------------------------------

e|--8----------------------------------------------|
B|-----11--8-----8~~~~s--4--3-----3h5p3------------|
G|------------9----------------5--------3----------|
D|-----------------------------------------3--5~~--|
A|-------------------------------------------------|
E|-------------------------------------------------|

-----------------------------------------------------

e|-------------------------------------------------|
B|-------------------------------------------------|
G|--------3~3~3~3~-0-------------------------------|
D|--3--5--------------3--3s5--3--1-----------------|
A|----------------------------------1s3--1---------|
E|-------------------------------------------------|

-----------------------------------------------------

e|-------------------------------------------------|
B|-----------------------------------3h4-----------|
G|-----------------------------3--5-------3--3s5---|
D|-------1--3--3s5--------3h5----------------------|
A|--1h3-------------5-5----------------------------|
E|-------------------------------------------------|

-----------------------------------------------------

e|-------------------------------------------------|
B|-------s8~8~8~8~s11-11~-9--8--6--------6--8------|
G|--5~5~------------------------------8------------|
D|-------------------------------------------------|
A|-------------------------------------------------|
E|-------------------------------------------------|

-----------------------------------------------------

e|--11--10--8------------11--10--8-----------------|
B|------------11--8----------------11--8-----------|
G|-------------------10~~----------------10p8-10~--|
A|-------------------------------------------------|
E|-------------------------------------------------|

-----------------------------------------------------

e|--11--10--8--10----------------------------------|
B|-----------------11---8-11----8------------------|
G|---------------------------10---8-10--7-8----7---|
D|------------------------------------------10-----|
A|-------------------------------------------------|
E|-------------------------------------------------|

-----------------------------------------------------

e|-------------------------------------------------|
B|-------------------------------------------------|
G|-------------------------------------------------|
D|--8------------10s8--8~-8s6--6~~6~~6--5h6p5-3-5--|
A|----8--8s10~~8-----------------------------------|
E|-------------------------------------------------|

-----------------------------------------------------

e|--10-11--13~~--11-10--8~~-11--10--8--------------|
B|------------------------------------11--8--6--8~-|
G|-------------------------------------------------|
D|-------------------------------------------------|
A|-------------------------------------------------|
E|-------------------------------------------------|
comments
print report bad tab
I want to post or [tab]
guest
You may want to rate the tab now too:
select rating
Please do not post tabs as comments. Select "correction" instead!