Oops, an error
Loading. Please wait.

High Hopes Tab

version 3
version 3

Whole song

12,037 views 54 this week
no commentswrite comment
1 2 3 4 5
x 6
add to favorites
launch autoscroll
font size
0
reset
how to read this tab
guitar tuner
Autoscroll
slow
fast
+/-
esc
set tempo
stop
Help us to improve Ultimate-Guitar.com Take our survey!
×
Author
Difficulty
intermediate
e|----8-----11-10---8-6----8-6-8------------------------------------------|
B|--1/----------------------6/8---------8\6--4/6---8-6\4------------------|
G|-------------------------------------------------------------5-3/5------|
D|------------------------------------------------------------------------|
A|------------------------------------------------------------------------|
E|------------------------------------------------------------------------|

e|----------6--6/8--8/10---10/11--11/13--13/15---|-15/20-18-20-18-15\13--13/15--|
B|-----88\--------------------------------------------------|-------------------|
G|--5/-------------------------------------------------------|------------------|
D|-----------------------------------------------------------|------------------|
A|-----------------------------------------------------------|------------------|
E|-----------------------------------------------------------|------------------|

e|-------8-10-11-10-4/6-------------------------|---------6-6/8-----------------|
B|--5/8----------------------6/8-----6/8\6/8------|-------8--------8/11--11/13--|
G|-----------------------------------------------8----|--5/8--------------------|
D|-----------------------------------------------------|------------------------|
A|-----------------------------------------------------|------------------------|
E|-----------------------------------------------------|------------------------|

e|--8/15----15/16\13/15----15/16\13/15--|--15/20-20/22-22-/23-23/24-24/27-27/30-30/32\--|
B|---------------------------------------------------|----------------------------------|
G|---------------------------------------------------|----------------------------------|
D|---------------------------------------------------|----------------------------------|
A|---------------------------------------------------|----------------------------------|
E|---------------------------------------------------|----------------------------------|

e|--------11-10-4/6--------------------------------------|-------8-11\10--13\11--15\13/15--|
B|--1/11-------------6/8--6/8\6----8-6\4--------------|--5/8-------------------------------|
G|---------------------------------------------5-3/5-------|-------------------------------|
D|-----------------------------------------------------------|-----------------------------|
A|-----------------------------------------------------------|-----------------------------|
E|-----------------------------------------------------------|-----------------------------|

e|--15/20--23\22--17\-----------|
B|------------------------------|
G|------------------------------|
D|------------------------------|
A|------------------------------|
E|------------------------------|

e|------------------------------------|-----------------------|-----------------------------------|
B|8\4----6\1------1/4\3-----------|-----------------------|----------8\4----6\1-------------------|
G|---------------------------3-------|-5-7-8-7-5---3/5---|------------------------3-5-------------|
D|------------------------------3/5--|-----------------------|-------------------------------3/5\3|
A|------------------------------------|-----------------------|-----------------------------------|
E|------------------------------------|-----------------------|-----------------------------------|

e|--------20--23\22---18--18/20-------------------------|
B|--------------------------------------20\18/20--------|
G|------------------------------------------------------|
D|--5/20------------------------------------------------|
A|------------------------------------------------------|
E|------------------------------------------------------|

e|--20--23\22----20/22/23--|--20----18/20\18/20--18/20\18/20-----------------------|
B|---------------------------------|-----------------------------------------------|
G|---------------------------------|-----------------------------------------------|
D|---------------------------------|-----------------------------------------------|
A|---------------------------------|-----------------------------------------------|
E|---------------------------------|-----------------------------------------------|

e|--20--23\22--25\23--27\25/27-27~~27~~27~~27~~27~~27~~27~~--|
B|-----------------------------------------------------------|
G|-----------------------------------------------------------|
D|-----------------------------------------------------------|
A|-----------------------------------------------------------|
E|-----------------------------------------------------------|
                                                          *(Fade Out)

************************************

| /  Slide up
| \  Slide down
| ~  Vibrato

************************************
Suggest correction
comments
print report bad tab
guest
You may want to rate the tab now too:
select rating
Wanna post a correction for this tab? Suggest correction