Oops, an error
Loading. Please wait.

High Hopes tab

version 2
version 2

Whole song

241 views 12 this week
no commentswrite comment
1 2 3 4 5
x 3
add to favorites
×
Save as Personal and add changes to this tab that will be seen only by you. Learn more ›
×
You can save this tab as Personal to edit and correct it or add notes. All changes will be seen only by you. Learn more »
launch autoscroll
font size
0
reset
how to read this tab
guitar tuner
backing track
0:00
0:00
edit
Autoscroll
slow
fast
+/-
esc
set tempo
stop
[Intro]
                                                                     (2x)
D|-5---5---8---8--------------------|-5---5---8---8--------------------|
A|-3---3---6---6---6---6------------|-3---3---6---6---6---6------------|
F|-----------------3---3------------|-----------------3---3------------|
C|----------------------------------|----------------------------------|
G|----------------------------------|----------------------------------|
D|----------------------------------|----------------------------------|


[Verse 1]
                                                                     (2x)
D|-5---5---8---8--------------------|-5---5---8---8--------------------|
A|-3---3---6---6---6---6------------|-3---3---6---6---6---6------------|
F|-----------------3---3------------|-----------------3---3------------|
C|-------0-------0-------0-------0--|-------0-------0-------0-------0--|
G|----------------------------------|----------------------------------|
D|----------------------------------|----------------------------------|

[Bridge]

D|-1---1---0---0---------------5----|-1---1---0---0--------------------|
A|-----------------3---3---2---2----|-----------------3---3---2--------|
F|-2---2---0---0---2-----------2----|-2---2---0---0---2----------------|
C|-0-------------------2---2--------|-0-------------------2---2--------|
G|---------1-------0-----------4----|---------1-------0----------------|
D|----------------------------------|----------------------------------|

[Verse 2]
                                                                     (2x)
D|-5---5---8---8--------------------|-5---5---8---8--------------------|
A|-3---3---6---6---6---6------------|-3---3---6---6---6---6------------|
F|-----------------3---3------------|-----------------3---3------------|
C|-------0-------0-------0-------0--|-------0-------0-------0-------0--|
G|----------------------------------|----------------------------------|
D|----------------------------------|----------------------------------|

[Chorus]

D|-----1-------0--------------------|-----1-------1--------------------|
A|-----3-------1-------3-------5----|-----3-------1-------3-------3----|
F|---2-2-2-----2-------3-------5----|---2-2-2---2-2-2-----3-------3----|
C|-0---------2---2---3-3-3---5-5-5--|-0-------3-----------5-----3-3-3--|
G|---------0-------1-------3--------|-------------------5---5-1--------|
D|----------------------------------|-----------------3----------------|

D|-----1-------0--------------------|-----1-------1--------------------|
A|-----3-------1-------3-------5----|-----3-------1-------3-------1----|
F|---2-2-2-----2-------3-------5----|---2-2-2---2-2-2-----3-------2----|
C|-0---------2---2---3-3-3---5-5-5--|-0-------3-----------5-----2-2----|
G|---------0-------1-------3--------|-------------------5---5-0--------|
D|----------------------------------|-----------------3----------------|

[Verse 3]
                                                                     (2x)
D|-5---5---8---8--------------------|-5---5---8---8--------------------|
A|-3---3---6---6---6---6------------|-3---3---6---6---6---6------------|
F|-----------------3---3------------|-----------------3---3------------|
C|-------0-------0-------0-------0--|-------0-------0-------0-------0--|
G|----------------------------------|----------------------------------|
D|----------------------------------|----------------------------------|

[Bridge]

D|-1---1---0---0---------------5----|-1---1---0---0--------------------|
A|-----------------3---3---2---2----|-----------------3---3---2--------|
F|-2---2---0---0---2-----------2----|-2---2---0---0---2----------------|
C|-0-------------------2---2--------|-0-------------------2---2--------|
G|---------1-------0-----------4----|---------1-------0----------------|
D|----------------------------------|----------------------------------|

[Solo]


D|------------------------------------------------------------------|
A|-----------------------------------------------2-2-------2--------|
F|-------------------------------2-2-----------2--------------------|
C|-4-----------4h6-6-----------6------------------------------------|
G|------------------------------------------------------------------|
D|-2-------2-------2-------2-------2-------2-------2-------2--------|

D|------------------------------------------------------------------------|
A|-0-------------------0-2-3-0-2---0--------------------0h2p0-------------|
F|-------------------------------2----------------------------2h4p2p0h2p0-|
C|------------------------------------------------------------------------|
G|------------------------------------------------------------------------|
D|-3-------3-------3-------3-------3-------3-------3----------3-----------|

D|------------------------------------------------------------------|
A|-----------------------------------------------2-2-------2--------|
F|-------------------------------2-2-----------2--------------------|
C|-4-----------4h6-6-----------6------------------------------------|
G|------------------------------------------------------------------|
D|-2-------2-------2-------2-------2-------2-------2-------2--------|

D|-----------------------------------------0-----------------------------|
A|-2---------------0---------------0--3--2-----3p2-0---------------------|
F|-------------2---------------------------------------------------------|
C|-----------------------------------------------------------------------|
G|-----------------------------------------------------------------------|
D|-3-------3-------3-------3-------3-------3-------3---------3-----------|

D|------------------------------------------------------------------|
A|-----------------------------------------------2-2-------2--------|
F|-------------------------------2-2-----------2--------------------|
C|-4-----------4h6-6-----------6------------------------------------|
G|------------------------------------------------------------------|
D|-2-------2-------2-------2-------2-------2-------2-------2--------|

D|------------------------------------------------------------------|
A|-3-----------0-3-2-------------2-0-------------0-2----------------|
F|-----------------------------2---------------2--------------------|
C|------------------------------------------------------------------|
G|------------------------------------------------------------------|
D|-3-------3-------3-------3-------3-------3-------3--------3-------|

D|------------------------------------------------------------------|
A|-----------------------------------------------2-2-------2--------|
F|-------------------------------2-2-----------2--------------------|
C|-4-----------4h6-6-----------6------------------------------------|
G|------------------------------------------------------------------|
D|-2-------2-------2-------2-------2-------2-------2-------2--------|

D|------------------------------------------------------------------|
A|-3-------------2-0---------------0--------------------------------|
F|-------------2----------------------2--0----0---------------------|
C|-----------------------------------------4-----2-4--0-------------|
G|-------------------------------------------------------2-0--------|
D|-3-------3-------3-------3-------3---------------3----------------|

[Interlude]

D|-5---5---8---8--------------------|-5---5---8---8--------------------|
A|-3---3---6---6---6---6------------|-3---3---6---6---6---6------------|
F|-----------------3---3------------|-----------------3---3------------|
C|----------------------------------|----------------------------------|
G|----------------------------------|----------------------------------|
D|----------------------------------|----------------------------------|

[Verse 4]
                                                                     (2x)
D|-5---5---8---8--------------------|-5---5---8---8--------------------|
A|-3---3---6---6---6---6------------|-3---3---6---6---6---6------------|
F|-----------------3---3------------|-----------------3---3------------|
C|-------0-------0-------0-------0--|-------0-------0-------0-------0--|
G|----------------------------------|----------------------------------|
D|----------------------------------|----------------------------------|

[Chorus / Solo]

D|-----1-------0--------------------|-----1-------1--------------------|
A|-----3-------1-------3-------5----|-----3-------1-------3-------3----|
F|---2-2-2-----2-------3-------5----|---2-2-2---2-2-2-----3-------3----|
C|-0---------2---2---3-3-3---5-5-5--|-0-------3-----------5-----3-3-3--|
G|---------0-------1-------3--------|-------------------5---5-1--------|
D|----------------------------------|-----------------3----------------|
                                                                repeat till fade
D|-----1-------0--------------------|-----1-------1--------------------|
A|-----3-------1-------3-------5----|-----3-------1-------3-------1----|
F|---2-2-2-----2-------3-------5----|---2-2-2---2-2-2-----3-------2----|
C|-0---------2---2---3-3-3---5-5-5--|-0-------3-----------5-----2-2----|
G|---------0-------1-------3--------|-------------------5---5-0--------|
D|----------------------------------|-----------------3----------------|

************************************


| h   Hammer-on
| p   Pull-off


************************************

            
            
Suggest correction
Creating personal tab
Creating personal tab
You can edit any tab online and save it as your Personal.

You can edit, replace or remove any tab part or add personal notes – all changes will be seen only by you.

Personal tabs can be accessed anytime from any device, even offline.
Learn more »
Give kudos to tab author, rate the tab!
1 2 3 4 5
comments
print report bad tab
guest
You may want to rate the tab now too:
select rating
Wanna post a correction for this tab? Suggest correction