Oops, an error
Loading. Please wait.

If Tab

version 1
version 1

Whole song

Interactive

41,081 views 159 this week
no commentswrite comment
1 2 3 4 5
accurate
x 9
add to favorites
launch autoscroll
font size
0
reset
how to read this tab
guitar tuner
Autoscroll
slow
fast
+/-
esc
set tempo
stop
Help us to improve Ultimate-Guitar.com Take our survey!
×
#----------------------------------PLEASE NOTE---------------------------------#
#This file is the author's own work and represents their interpretation of the #
#song. You may only use this file for private study, scholarship, or research. #
#------------------------------------------------------------------------------##
If -- by Pink Floyd, from the album Atom Heart Mother
Words and music by Roger Waters
tabbed by Aidan Cully

   E                               B7
e|------0---------------0-----------------------------|
B|----0---0-----------0---0-------------0-------------|
G|--1-------1---1---1-------1---1-----2---2-----------|
D|2-----------2---2-----------2-----1-------1---1---1-|
A|--------------------------------2-----------2---2---|
E|----------------------------------------------------|
             E                               D
e|------------------0---------------0---------------2-|
B|--0-------------0---0-----------0---0-----------3---|
G|2---2---------1-------1---1---1-------1---1---2-----|
D|------1---1-2-----------2---2-----------2---0-------|
A|--------2-------------------------------------------|
E|----------------------------------------------------|
             If I_           were a swan I'd be gone_
                         E
e|--------------2---------------0---------------0-----|
B|3-----------3---3-----------0---0-----------0---0---|
G|--2---2---2-------2---2---1-------1---1---1-------1-|
D|----0---0-----------0---2-----------2---2-----------|
A|----------------------------------------------------|
E|----------------------------------------------------|
                          If I_           were a train
                                      E
e|----------2---------------2---------------0---------|
B|--------3---3-----------3---3-----------0---0-------|
G|--1---2-------2---2---2-------2---2---1-------1---1-|
D|2---0-----------0---0-----------0---2-----------2---|
A|----------------------------------------------------|
E|----------------------------------------------------|
 I'd be late_                   and  if I_
 C#7              F#              B7
e|----------------------------------------------------|
B|------2----------------2---------------0------------|
G|----4---4------------3---3-----------2---2----------|
D|--3-------3---3----4-------4---4---1-------1---1----|
A|4-----------4--------------------2-----------2------|
E|-----------------2-----------2----------------------|
were a good man  I'd talk with you more often than I

repeat
do.

If I were a swan, I'd be gone...
If I were a train, I'd be late... and
If I were a good man,
I'd talk with you more often than I do.

If I were asleep, I could dream...
If I were afraid, I could hide... and
If I go insane,
Please don't put your wires in my brain.

If I were a moon, I'd be cool...
... and
If I were a good man,
I'd understand the spaces between friends.

If I were alone, I would cry...
If I were with you, I'd be home, and dry, and
If I go insane,
Will you still let me join in with the game.

Repeat first verse, end on E chord.


From: 93003865DEC@OAK.NENE.AC.UK
Date: Tue, 8 MAR 94 10:50:07 GMT
Subject: TAB: If -- Pink Floyd :: Atom Heart Mother


IF (From Atom Heart Mother)

Probably steel string acoustic, tuned to yer standard E-A-D-G-B-E.

  (E)             (God Knows)     (E)             (D)
e|------------------------------------------------------------------|
B|----------------2-----2-2-----2-----------------------------------|
G|2-----2-2-----2--1---1-1-1---1-12-----2-2-----2-0-----0-0-----0---|
D|-1---1-1-1---1-1--2-2-----2-2----1---1-1-1---1-1-2---2-2-2---2-2--|
A|--0-0-----0-0------0-------0------0-0-----0-0-----3-3-----3-3-----|
E|---0-------0-----------------------0-------0-------2-------2------|

  (E)             (D)             (E)     (?)     (?)     (?)
e|------------------------------------------------2-----2-----------|
B|----------------------------------------4-----4--1---1-12-----2---|
G|2-----2-2-----2-0-----0-0-----0-2-----2--3---3-3--2-2----1---1-1--|
D|-1---1-1-1---1-1-2---2-2-2---2-2-1---1-1--4-4------3------2-2-----| (repeat)
A|--0-0-----0-0-----3-3-----3-3-----0-0------2---------------0------|
E|---0-------0-------2-------2-------0------------------------------|


Lovely, eh?

This TAB supplied by Lucifer Sam at Newcastle Poly, a very nice man.
Suggest correction
comments
print report bad tab
guest
You may want to rate the tab now too:
select rating
Please do not post tabs as comments. Select "correction" instead!