Oops, an error
Loading. Please wait.

In The Flesh Tab

version 1
version 1
28,419 views 12 this week
no commentswrite comment
1 2 3 4 5
accurate
x 6
add to favorites
launch autoscroll
font size
0
reset
how to read this tab
guitar tuner
Autoscroll
slow
fast
+/-
esc
set tempo
stop
Help us to improve Ultimate-Guitar.com Take our survey!
×
Author
Difficulty
intermediate
s-slide
/-full bend
\-half bend
tempo-about 150

E-----------------------0------0---0--------------------2-----4-----5-----4---|
B------------------8s3--0-----0---0-3-------------------3-----5-----6-----5---|
G------------------7s2------2/--2/---2/2-0--------------2-----4-----5-----4---|
D----------------------------------------2-0-------2----0-----0-----0-----0---|
A---------0-2-3-----------------------------2-1-0-----------------------------|
E-0--2--3-------------------------------------3\0-----------------------------|

E--2-----4-----5-----7--------------------------------------------------------|
B--3-----5-----6-----8----------------------------------------5/--------------|
G--2-----4-----5-----7----2------------------x------------6---7--7--6---------|
D--0-----0-----0-----0----2------------------x------------------------7/--x---|
A-------------------------0---2/\2---0-------x-x--4\-4--2---------------------|
E--------------------------------------2/\-----x------------------------------|

E------------------------------------------------------------------------------|
B----7/----------------------------------------------5/-------------x-x-7/-----|
G----9----9--7-----------------------------------6---7----7---6-6-7-----9--9-7-|
D-x-------------2--------------------------------------------------------------|
A---------------0--2/--2---0------x-x--4\---4--2-------------------------------|
E----------------------------2/---x-x------------------------------------------|

E-----------------------------------------------------------------------------|
B---------------------------------------5/-----------------x-x--7/------------|
G-2--------------------x------------6---7---7---6---6---7--------9---9---7--8-|
D-2--------------------x------------------------------------------------------|
A-0---2/---/---0--/-2----x-4\--2--3-------------------------------------------|
E-----------------------------------------------------------------------------|

E-------------------------------------------0----------------------------------|
B----------------------------9/-------------0----------------------------------|
G----x--------------------9--11--11---9s----1----------------------------------|
D----x--------------------------------------2--------0----2--------------------|
A-4-----5/---5---4--------------------------2------4--------2------------------|
E-------------------s12s--------------------0s---4------------0----------------|
Suggest correction
comments
print report bad tab
guest
You may want to rate the tab now too:
select rating
Wanna post a correction for this tab? Suggest correction