Oops, an error
Loading. Please wait.

In The Flesh Tab

version 1
version 1
151,134 views 171 this week
9 commentsread comments
1 2 3 4 5
accurate
x 21
add to favorites
launch autoscroll
font size
0
reset
how to read this tab
guitar tuner
Autoscroll
slow
fast
+/-
esc
set tempo
stop
Help us to improve Ultimate-Guitar.com Take our survey!
×
Author
[Intro]

e|-----------------------------------------------------0-|
B|-----------------------------------------8-----3-----0-|
G|-----------------------------------------7-----2-------|
D|-------------------------------------------------------|
A|-------------------------------------------------------|
E|-0-------2-------3-------0-----2---3~~~~---------------|

e|---------0-----------0--------------------------------------|
B|-----------3-----------3------------------------------------|
G|-2b(4)-0-----2b(4)-0-----2b(4)-2-0--------------------------|
D|-----------------------------------2-0----------------------|
A|---------------------------------------2-1-0---------2~~~~~-|
E|---------------------------------------------3b(4)p0--------|

e|-----------------------------------------------------------|
B|-3-------5-------6-------5-------3-------5-------6-------8-|
G|-2-------4-------5-------4-------2-------4-------5-------7-|
D|-0-------0-------0-------0-------0-------0-------0-------0-|
A|-----------------------------------------------------------|
E|-----------------------------------------------------------|

e|----------------------------------------------------------------|
B|----------------------------------------------------------------|
G|----------------------------------------------------------------|
D|----------------------------------------------------------------|
A|-0-----2pb(4)-----2-----0-----------------xx-4pb(5)-----4-----2-|
E|----------------------------2pb(4)---2----xx--------------------|

e|----------------------------------------------------------------|
B|----------------------------------------------------------------|
G|----------------------------------------------------------------|
D|-2--------------------------------------------------------------|
A|-0-----2pb(4)-----2-----0-----------------xx-4pb(5)-----4-----2-|
E|----------------------------2pb(4)---2----xx--------------------|

e|---------------------------------------------------------------------|
B|---------------------------------------------------------------------|
G|---------------------------------------------------------------------|
D|-2-------------------------------------------------------------------|
A|-0-----2pb(4)-----2-----0-----1---2-----4pb(5)-----4-----2-----3---4-|
E|---------------------------------------------------------------------|

e|------------------------------|
B|------------------------------|
G|------------------------------|
D|------------------------------|
A|-5pb(7)-----5-----4-----------|
E|------------------------0-----|


[Pre-Verse and Verse]

e|-------------------------------2-----------2-----|
B|-------2-----------2---------3---3-------3---3---|
G|-----2---2-------2---2-----2-------2---2-------2-|
D|---2-------2---2-------2-0-----------0-----------|
A|-0-----------0-----------------------------------|
E|-------------------------------------------------|

e|-------------------------------2-----------2-----|
B|-------2-----------2---------3---3-------3---3---|
G|-----2---2-------2---2-----2-------2---2-------2-|
D|---2-------2---2-------2-0-----------0-----------|
A|-0-----------0-----------------------------------|
E|-------------------------------------------------|

e|-------------------------------------------------|
B|-------2-----------2-----------3-----------3-----|
G|-----2---2-------2---2-------4---4-------4---4---|
D|---2-------2---2-------2---4-------4---4-------4-|
A|-0-----------0-----------2-----------2-----------|
E|-------------------------------------------------|

e|-------------------------------0-----------0-----|
B|-------5-----------5-------------0-----------0---|
G|-----6---6-------6---6-------1-----1-----1-----1-|
D|---6-------6---6-------6---2-----------2---------|
A|-4-----------4-----------------------------------|
E|-------------------------0-----------0-----------|

when the lyrics are finished, play the intro again and finish with
the following chords (listen for rhythm)

e|-------------|
B|-------------|
G|-------------|
D|-2-----7-----|
A|-2-----7-----|
E|-0-----5-----|



************************************

| x  Dead note
| ~  Vibrato
| p  Pull off
| b  Bend
| pb Pre-Bend

************************************
Suggest correction
comments
print report bad tab
9 comments total. Showing first comments.
0 reply
Pink_Floyd_Net 30 wrote on February 8 2005, 12:00 am

Naw dude..you got a bunch of mistakes...

0 reply
twolostsouls 10 wrote on March 8 2006, 05:22 pm

I actually only found one mistake.

-1 reply
pinkfloyder1000 85 wrote on April 17 2006, 09:36 pm

If you only found one mistake, you should listen to the song over again, there are LOTS

guest
You may want to rate the tab now too:
select rating
Wanna post a correction for this tab? Suggest correction