Oops, an error
Loading. Please wait.

In The Flesh Tab

version 2
version 2
93,107 views 297 this week
11 commentsread comments
1 2 3 4 5
x 36
add to favorites
launch autoscroll
font size
0
reset
how to read this tab
guitar tuner
×
Best way to learn
"In The Flesh"
Autoscroll
slow
fast
+/-
esc
set tempo
stop
In the Flesh
Pink Floyd
The Wall

[Intro]

e|------------------------------------------------------0------|
B|-------------------------------------------8\---3\----0------|
G|-------------------------------------------7----2------------|
D|-------------------------------------------------------------|
A|----------------------0----2----3~~--------------------------|
E|--0--0----2~~----3-------------------------------------------|

e|---------0--------------0--------------------------------------------------|
B|-------------3--------------3---0------------------------------------------|
G|----2b------------2b----------------2---0----------------------------------|
D|--------------------------------------------2---0-----------------------2~~|
A|----------------------------------------------------2---0------------------|
E|---------------------------------------------------------------3b(4)p0-----|


e|-------2~~--------4~~--------5~~--------4~~---|
B|-------3~~--------5~~--------6~~--------5~~---|
G|-------2~~--------4~~--------5~~--------4~~---|
D|-------0~~--------0~~--------0~~--------0~~---|
A|----------------------------------------------|
E|----------------------------------------------|

e|-------2~~--------4~~--------5~~-------7~~----|
B|-------3~~--------5~~--------6~~-------8~~----|
G|-------2~~--------4~~--------5~~-------7~~----|
D|-------0~~--------0~~--------0~~-------0~~----|
A|----------------------------------------------|
E|----------------------------------------------|


[Main Riff]

e|------------------------------------------------------------|
B|------------------------------------------------------------|
G|------------------------------------------------------------|   2x(Times)
D|------------------------------------------------------------|
A|------------------------------------------------------------|
E|----5~~----7b----7~~----5~~----4----2~~----9b----9~~----7~~-|


[Riff 2]

e|---------------------------------------------------------------------|
B|---------------------------------------------------------------------|
G|---------------------------------------------------------------------|
D|---------------------------------------------------------------------|
A|---------------------------------------------------------------------|
E|--5~~--7b--7~~--5~~--6--7~~--9b--9~~--7~~--8--9~~--10b--10~~--9\--0--|

Here you do some picking...

              A                           D
e|----------0-----------0----------------2------------2---------|
B|-------2----2-------2----2----------3-----3-------3---3-------|
G|----2---------2---2--------2-----2----------2---2-------2-----|  2x(Times)
D|--2-------------2--------------0--------------0---------------|
A|--------------------------------------------------------------|
E|--------------------------------------------------------------|

              A                  Bm
e|----------0-----------0----------------2------------2-----------|
B|-------2----2-------2----2----------3-----3-------3----3--------|
G|----2---------2---2--------2-----4----------4---4---------4-----|
D|--2-------------2--------------4--------------4-----------------|
A|----------------------------------------------------------------|
E|----------------------------------------------------------------|


              C#m                  E
e|--------4-----------4-------------0-------------0-----------|
B|------5---5-------5----5--------0----0--------0----0--------|
G|----6-------6---6--------6----1--------1----1--------1------|
D|--6-----------6-------------2------------2------------------|
A|------------------------------------------------------------|
E|------------------------------------------------------------|

keep going through that picking patern all through the song...

So ya
Thought ya
Might like to
Go to the show.
To feel that warm thrill of confusion,
That space cadet glow.
I've got some bad news for you sunshine,
Pink isn't well, he stayed back at the hotel
And they sent us along as a surrogate band
We're gonna find out where you folks really stand.

Are there any queers in the theater tonight?
Get them up against the wall!
There's one in the spotlight, he don't look right to me,
Get him up against the wall!
That one looks Jewish!
And that one's a coon!
Who let all of this riff-raff into the room?
There's one smoking a joint,
And another with spots!
If I had my way,
I'd have all of you shot!


[Main Riff]

e|------------------------------------------------------------|
B|------------------------------------------------------------|
G|------------------------------------------------------------|   2x(Times)
D|------------------------------------------------------------|
A|------------------------------------------------------------|
E|----5~~----7b----7~~----5~~----4----2~~----9b----9~~----7~~-|


[Riff 2]

e|---------------------------------------------------------------------|
B|---------------------------------------------------------------------|
G|---------------------------------------------------------------------|
D|---------------------------------------------------------------------|
A|---------------------------------------------------------------------|
E|--5~~--7b--7~~--5~~--6--7~~--9b--9~~--7~~--8--9~~--10b--10~~--9\--0--|

e|--5-------------------------------------------------------------------|
B|--5-------------------------------------------------------------------|
G|--6-------------------------------------------------------------------| 7x
D|--7-------------------------------------------------------------------|
A|--7-------------------------------------------------------------------|
E|--5-------------------------------------------------------------------|

e|--5\-------------------------------------------------------------------|
B|--5\-------------------------------------------------------------------|
G|--6\-------------------------------------------------------------------|
D|--7\-------------------------------------------------------------------|
A|--7\-------------------------------------------------------------------|
E|--5\-------------------------------------------------------------------|
Dead stop at the end.



************************************

| b  Bend
| \  Slide down
| ~  Vibrato 

************************************
Suggest correction
comments
print report bad tab
11 comments total. Showing first comments.
+2 reply
who1973 70 Nov 10, 2009 02:40 PM

Definitely the best version on here, though the intro should be like this:

INTRO:
e-|-------------------|-----------------------------|--------------0-----|
B-|-------------------|-----------------------------|-8----\--3----0-----|
G-|-------------------|-----------------------------|-7----\--2----------|
D-|-------------------|-----------------------------|--------------------|
A-|-------------------|---------0-------2---3vvvvv--|--------------------|
E-|--0--------2vvvvv--|-3vvvvv----------------------|--------------------|

|---------0------------0-----------------------------------------------|
|------------3------------3--------------------------------------------|
|-2>(4)-0------2>(4)-0------2>(4)--2-0---------------------------------|
|--------------------------------------2-0-----------------------------|
|------------------------------------------2-1-0---------2vvvvvvv------|
|------------------------------------------------3>(4)p0---------------|

|-2vvvvv---4vvvvv---5vvvvv---4vvvvv-|-2vvvvv---4vvvvv---5vvvvv---7vvvvv-|
|-3vvvvv---5vvvvv---6vvvvv---5vvvvv-|-3vvvvv---5vvvvv---6vvvvv---8vvvvv-|
|-2vvvvv---4vvvvv---5vvvvv---4vvvvv-|-2vvvvv---4vvvvv---5vvvvv---7vvvvv-|
|-0vvvvv---0vvvvv---0vvvvv---0vvvvv-|-0vvvvv---0vvvvv---0vvvvv---0vvvvv-|
|-----------------------------------|-----------------------------------|
|-----------------------------------|-----------------------------------|

+1 reply
Tomer the King 347 Apr 27, 2012 09:24 AM

Should be a C#m before the E in the verse, like so:

A D A D A Bm C#m E

0 reply
Fanofthepants 10 Nov 15, 2012 06:30 PM

Tomer is right.

guest
You may want to rate the tab now too:
select rating
Wanna post a correction for this tab? Suggest correction