Oops, an error
Loading. Please wait.
We have an official In The Flesh tab made by UG professional guitarists. Check out the tab »
×
329 views 1 this week
1 commentread comment
1 2 3 4 5
1 last vote to show rating
add to favorites
×
Save as Personal and add changes to this tab that will be seen only by you. Learn more ›
×
You can save this tab as Personal to edit and correct it or add notes. All changes will be seen only by you. Learn more »
launch autoscroll
font size
0
reset
guitar tuner
backing track
0:00
0:00
edit
Autoscroll
slow
fast
+/-
esc
set tempo
stop
Author
-------------------------------------------------------------------------------
                             In The Flesh? by Pink Floyd
-------------------------------------------------------------------------------
Tabbed by: Jeremy Belcher
E-mail: belcher32@gmail.com
Tuning: Standard
This is my first attempt at making a tab. Please let me know what you think of it. I
don't know if I got the timing quite correct throughout but if you listen to the song
you'll easily be able to follow along.

I reviewed a lot of tabs online to base it off of. Most notably ver 2 here by Jérôme
Melançon (melancon@crosswinds.net). Awesome job by Jérôme and an awesome first name by 
the way.

I wanted to do one closer to the live version from the "Is There Anybody Out There"
album. Anyone that knows Floyd knows Roger Waters had to cut down a lot of the songs on the
studio album in order to put it on the market. The live versions more closely emulate 
Roger's ideas. Not that this tab is supposed to match exactly but this is my 
interpretation. Enjoy!!!!!

G|--------------------------------------------|--------------------------------------------|
D|--------------------------------------------|--------------------------------------------|
A|---------------------------------0--2--3----|--10--\--5--/--7----------------------------|
E|--0--0--------2--------3--------------------|-----------------------0--0-----0--0--------|

G|--------------------------------------------|--------------------------------------------|
D|--------------------------------------------|--------------------------------------------|
A|---------------------------------0--2--3----|--10--\--5--/--7----------------------------|
E|-----0--------2--------3--------------------|-----------------------0--0-----0--0--------|

G|--------------------------------------------|--------------------------------------------|
D|0-------------2---------------------3-------|--------------2---------------------3--2----|
A|--------------------------------------------|--------------------------------------------|
E|--0--0------------------0-0-----------------|--0-0-----------------0-0-------------------|

G|--------------------------------------------|--------------------------------------------|
D|0-------------2---------------------3-------|--------------5-----------------------------|
A|--------------------------------------------|--------------------------------------------|
E|--0--0------------------0-0-----------------|--0-0-----------------0-0-------------------|

G|--------------------------------------------|--------------------------------------------|
D|--------------------------------------------|--------------------------------------------|
A|--------4--2-----------------5--4--2--------|--------4--2-----------------5--4--2--------|
E|----5------------5--4--2--------------------|----5------------5--4--2--------------------|

G|--------------------------------------------|--------------------------------------------|
D|--------------------------------------------|----2---------------------------------------|
A|--------4--2----0--1--2----5--4--2-3-4------|--------5--4--2-----------------------------|
E|----5---------------------------------------|---------------------------0----0-0---------|

=
Vocals No Bass
=

G|--------------------------------------------|--------------------------------------------|
D|--------------------------------------------|--------------------------------------------|
A|--------4--2-----------------5--4--2--------|--------4--2-----------------5--4--2--------|
E|----5------------5--4--2--------------------|----5------------5--4--2--------------------|

G|--------------------------------------------|--------------------------------------------|
D|--------------------------------------------|----2---------------------------------------|
A|--------4--2----0--1--2----5--4--2-3-4------|--------5--4--2-----------------------------|
E|----5---------------------------------------|---------------------------0----0-0---------|




G|--------------------------------------------|--------------------------------------------|
D|--------------------------------------------|--------------------------------------------|
A|--------------------------------------------|0/-----12\---0/-------15\----0/-------------|
E|---0----0----0----0-------------------------|--------------------------------------------|
                                     Let ring                           Random slides on A


| /  slide up
| \  slide down
| h  hammer-on
| p  pull-off
| ~  vibrato
| +  harmonic
| x  Mute note

            
            
Suggest correction
Creating personal tab
Creating personal tab
You can edit any tab online and save it as your Personal.

You can edit, replace or remove any tab part or add personal notes – all changes will be seen only by you.

Personal tabs can be accessed anytime from any device, even offline.
Learn more »
Give kudos to tab author, rate the tab!
1 2 3 4 5
comments
print report bad tab
1 comment total.
0 reply
belcher32 30 Nov 12, 2013 03:57 PM

I'm not sure how to correct a tab once I've uploaded it but I noticed in the beginning my 10\5/7 slideds are on the wrong string. It should be on the A string not D. Once I figure out how to correct it I will. Thanks for looking at it.

guest
You may want to rate the tab now too:
select rating
Wanna post a correction for this tab? Suggest correction