Oops, an error
Loading. Please wait.

Interstellar Overdrive Tab

version 1
version 1

Intro

Whole song

Interactive

16,750 views 27 this week
4 commentsread comments
1 2 3 4 5
x 6
add to favorites
launch autoscroll
font size
0
reset
how to read this tab
guitar tuner
Autoscroll
slow
fast
+/-
esc
set tempo
stop
Help us to improve Ultimate-Guitar.com Take our survey!
×
Author
-------------------------------------------------------------------------------
                             Interstellar Overdrive - Pink Floyd
-------------------------------------------------------------------------------
Tabbed by: MicroWaved31
Email:plasticfaith31@yahoo.com

One of my favorite songs from the album and my first tab. Let's hope I don't screw this
up. Really easy song. 


e|---------------------------------------------------------------------------|
B|---------------------------------------------------------------------------|
G|---------------------------------------------------------------------------|
D|------------------9-9--8-7-8---7-7--6-7-6---5-5-5-55-55-44-2---------------|
A|------------------9-9--8-7-8---7-7--6-7-6---5-5-5-55-55-44-2---------------|
E|0000000000000000--7-7--6-9-6---5-5--4-5-4---3-3-3-33-33-22-0---------------|

Repeat this four times and that'd be the intro. There's also another guitar that plays
the same thing with a funk rythm on higher notes but I'm not sure how to play that if
you do please email me or submit it. Thanks.
===============================================================================
Suggest correction
comments
print report bad tab
4 comments total. Showing first comments.
0 reply
hak_hap 213 Jul 12, 2005 12:00 AM

Well, you said it was easy, but you DID screw it up a lil.
You tabbed one of the live versions I believe. The original version
goes like this:

E|---------------0-0-0-------------0-0-------------- REPEAT THIS
B|---------------0-0-0-------------0-0--------------
G|---------------1-1-1-------------1-0--------------
D|---------------2-2-2-------------2-1--------------
A|---------------2-2-2-------------2-1--------------
E|-0-0-0-0-0-0-0-0-0-0-0-0-0-0-0-0-0-0-0-0-0-0-0----...

0 reply
Gibson69 40 Feb 19, 2006 10:45 PM

its to vague

0 reply
pinkfloyder1000 85 Apr 24, 2006 12:32 PM

you say this is an easy song, but thats only because you don't know how to REALLY play it. You screwed up the tab big time.

guest
You may want to rate the tab now too:
select rating
Wanna post a correction for this tab? Suggest correction