Oops, an error
Loading. Please wait.

Jugband Blues bass

version 1
version 1

Whole song

Interactive

55 views 1 this week
no commentswrite comment
1 2 3 4 5
3 more votes to show rating
add to favorites
×
Save as Personal and add changes to this tab that will be seen only by you. Learn more ›
×
You can save this tab as Personal to edit and correct it or add notes. All changes will be seen only by you. Learn more »
launch autoscroll
font size
0
reset
guitar tuner
edit
Autoscroll
slow
fast
+/-
esc
set tempo
stop
-----------------------------------------------------------------
JUGBAND BLUES - Pink Floyd
-----------------------------------------------------------------
Tabbed by: u/Callabashful

Tuning: Standard

G|---------------------------------------------------------------|
D|---------------------------------------------------------------|
A|-----3---------------------3-----------------------------------|
E|----------------------------------5----------------------------|
  It's awfully considerate of you to think of me here,


G|--------------------------------------------------------------------|
D|--------------------------------------------------------------------|
A|--------3---------------------3--------------------------------3----|
E|-5------------------------------5---------------------------5-------|
  and I'm most obliged to you for making it clear that I'm not here. 

G|---------------------------------------------------------------------------------------|
D|---------------------------------------------------------------------------------------|
A|-3------------------------------3---3---3---3-----------------------------3-----3----3-|
E|---5-------5---------5-------5----------------5---------5-------5-----5----------------|
  And I never knew the moon could be so big, and I never knew the moon could be so blue.

G|---------------------------------------------------------------------------------------------------------|
D|--------------------------------------------------------3-----3---3---3---5-----5-----5--7---7---7---7---|
A|---3----------------------------------------3----3-------------------------------------------------------|
E|--------5------5------5------5------5-----5--------------------------------------------------------------|
  And I'm grateful that you threw away my old shoes and brought me here instead dressed in red.

G|-----------------------------------------------------|
D|-----------------------------------------------------|
A|--------2----------------------2---------------------|
E|------------------2-------------------------2-----222|
  And I'm wondering who could be writing this song.

G|----7---------------------------------------7----------------------------|
D|-5-----------7--------------------7-----5------------7-----------------7-|
A|---------5---------------7-----5----------------5-------------7----5-----|
E|---------------------5-----------------------------------5---------------|
  I don't care if the sun don't shine and I don't care if nothing is mine.

G|------------------------2---------------2-------------------------------|
D|----3----------3-----3--------------------3-----------------3----3/7----|
A|------------------------------------------------------------------------|
E|------------------------------------------------------------------------|
  And I don't care if I'm nervous with you, I'll do my loving in the winter.

G|-----------------------------------------------|
D|-7-7-7-7-7-7-7-7-7-7-7-7-7-7-7-7-7-7-7-7-7-7-7-| // (play eigth notes until the brass band comes in)
A|-----------------------------------------------|
E|-----------------------------------------------|

G|---7-------------|----7------------|---7-------------|---7-----9--7-|
D|-5-----7-------7-|-5-----7-------7-|-5-----7-------7-|-5----7-------|
A|-----5----7--5---|-----5----7--5---|----5-----7--5---|----5---------|
E|--------5--------|--------5--------|--------5--------|-------5------|

G|-----7--------------------|--4-7-4------------|--7-4---------------------|--7-4----------------|
D|-5--5-5----7-----------7--|-5------4-7-4------|-5---5-4-7-4--------4-7-4-|-5---5-4-7-4-4--7----|
A|-------5--5-5----7-5--5-5-|-------5---------5-|------5------4-7-4-5------|------5-----------5--|
E|-------------5--5-5-------|-------------5-5---|------------5-------------|------------5--------|

I don't believe there is any bass after 1:40.



************************************

| /  Slide up

************************************

            
            
Suggest correction
Creating personal tab
Creating personal tab
You can edit any tab online and save it as your Personal.

You can edit, replace or remove any tab part or add personal notes – all changes will be seen only by you.

Personal tabs can be accessed anytime from any device, even offline.
Learn more »
Give kudos to tab author, rate the tab!
1 2 3 4 5
comments
print report bad tab
guest
You may want to rate the tab now too:
select rating
Wanna post a correction for this tab? Suggest correction