Oops, an error
Loading. Please wait.

Learning To Fly Bass Tab

version 1
version 1

Whole song

14,415 views 24 this week
2 commentsread comments
1 2 3 4 5
x 10
add to favorites
launch autoscroll
font size
0
reset
guitar tuner
×
Best way to learn
"Learning To Fly"
Autoscroll
slow
fast
+/-
esc
set tempo
stop
LEARNING TO FLY
Pink Floyd
(Gilmour, Moore, Ezrin, Carin)

     0:00
G|---|--------------------|-------------------------------|-----------------|
D|---|--------------------|-----------5-------------------|-----------------|
A|---|--------------------|----------------------------5--|--7--------------|
E|---|--3--------3--3-----|--3--3--3-----3-----3--5/7-----|--------0--0-----|

G|------------------------------|--------------------|------------------------|
D|------------------------------|--------------------|-----------5------------|
A|------------7--------5--------|--------------------|------------------------|
E|---0--0--0-----0--------7--5--|--3--------3--3-----|--3--3--3-----3-----3---|

G|--------------|-----------------|-----------------------------|-------------|
D|--------------|-----------------|-----------------------------|-------------|
A|--------5-----|--7--------------|-----------7-----------------|-------------|
E|---5/7-----7--|--------0--0-----|--0--0--0-----0-----7--5--7--|--3--------3-|

G|---------|-------------------------------|-----------------|----------------|
D|---------|-----------5-------------------|-----------------|----------------|
A|---------|----------------------------5--|--7--------------|-----------7----|
E|---3-----|--3--3--3-----3-----3--5/7-----|-----------0-----|--0--0--0-----0-|

G|---------------|-----------------|----------------------------------|-------|
D|---------------|-----------------|-----------5----------------------|-------|
A|------5--------|-----------------|----------------------------5-----|--7----|
E|---------7--5--|--3--------3-----|--3--3--3-----3-----3--5/7-----7--|-------|

G|------------|-----------------------------|-----------------|---------------|
D|------------|-----------------------------|-----------------|--------5------|
A|------------|-----------7-----------------|-----------------|---------------|
E|---0--0-----|--0--0--0-----0-----0--0--2--|--3--------3-----|--3--------3---|

                                                                   0:58
G|-----------------|-----------------|-----------------------------|----------|
D|-----------------|-----------------|-----------------------------|----------|
A|--------------5--|-----------------|--------7--------7-----5-----|--3-----3-|
E|------3--5/7-----|--0-----0--0-----|--0--------0-----------------|----------|

G|---------------|-----------------------|-------------------------------|----|
D|---------------|-----------------------|-------------------------------|----|
A|---3-----2-----|-----------------------|-------------------------5-----|--3-|
E|---------------|--5-----3--5-----3-----|--1--1--1--1--1--1--3/5--------|----|

                                  1st Guitar Solo
G|--------------------------------|-----------------|-------------------------|
D|--------------------------------|-----------------|-----------5-------------|
A|---3--3--3-----3/5--5--5--5--5--|-----------------|-------------------------|
E|--------------------------------|--3-----3--3-----|--3--3--3-----3-----3----|

                                                      1:21
G|----------|-----------------------|-----------------|-----------------|-----|
D|----------|-----------------------|-----------------|-----------------|-----|
A|----------|--------------5--7-----|--5--------------|-----------------|-----|
E|---/7--7--|--0-----0--7-----------|-----------------|--3-----3--3-----|--3--|

G|--------------------------|-----------------|----------------------|--------|
D|------5-------------------|-----------------|----------------------|--------|
A|-----------------------5--|--7--------------|--------7--------5\---|--------|
E|---------3-----3--5/7-----|--------0--0-----|--0--------0----------|--3-----|

G|------------|----------------------------|-----------------|----------------|
D|------------|--------5-------------------|-----------------|----------------|
A|------------|-------------------------5--|--7--------------|--------7-------|
E|---3--3-----|--3--------3-----3--5/7-----|-----------0-----|--0--------0----|

                  1:44
G|----------------|-----------------------|-----------------------|-----------|
D|----------------|-----------------------|-----------------------|-----------|
A|---/7-----5-----|--3-----3--3-----2-----|-----------------------|-----------|
E|----------------|-----------------------|--5-----3--5-----3-----|--1--1--1--|

G|--------------------|----------------------------|--------------------------|
D|--------------------|----------------------------|--------------------------|
A|-----------------5--|--3--3--3--3--3--3-------3--|--3-----3--3--3-----2-----|
E|---1--1--1--3/5-----|--------------------3h5-----|--------------------------|

G|---|-----------------------------|----------------------------|-------------|
D|---|-----------------------------|----------------------------|-------------|
A|---|-----------------------------|----------------------5--5--|--3--3--3--3-|
E|---|--5-----5--5--0--5--5--3--3--|--1-----1--1---/5--5--------|-------------|

G|---------------|-----------------|-----------------|-----------------|------|
D|---------------|-----------------|-----------------|-----------------|------|
A|---5--5--5--5--|-----------------|-----------------|-----------------|------|
E|---------------|--1-----1--------|-----------------|--1-----1--------|------|

G|------------9h12--9^--(9)---------|-----------------|-----------17\---------|
D|------------------------------10--|-----------------|-----------------15\---|
A|----------------------------------|--8-----8--------|-----------------------|
E|----------------------------------|-----------------|-----------------------|

G|---|-----------------|--------------|-----------------|------------------|--|
D|---|-----------------|--------------|-----------------|------------------|--|
A|---|-----------------|--------------|-----------------|-----------2h3/---|--|
E|---|--1-----1--------|--------------|--1-----1--------|------------------|--|

G|------------------|-----------17\---------------|-----------------|---------|
D|------------------|-----------------15\---------|-----------------|---------|
A|------------------|-----------------------15\---|-----------------|---------|
E|---1-----1--------|-----------------------------|--1-----1--------|---------|

G|---------------------------|-----------------|-----------------|------------|
D|---2--2--------------------|-----------------|-----------------|------------|
A|---------3--3-----0--0--0--|-----------------|-----------------|------------|
E|---------------------------|--1-----1--------|-----------------|--5-----5---|

G|---------|-----------------|-----------------|------------------------------|
D|---------|-----------------|-----------------|------------------------------|
A|---------|-----------------|--5-----5--------|--5-----3-----2---------------|
E|---------|--5-----5--------|-----------------|--------------------5---------|

     3:05
G|---|--------------------------|--------------------------|------------------|
D|---|--5--5--5--5--5--5--5--5--|--5--5--5--5--5--5--5-----|------------------|
A|---|--------------------------|--------------------------|--7--7--7--7--7---|
E|---|--------------------------|--------------------------|------------------|

G|------------|--------------------------|--------------------------|---------|
D|------------|--------------------------|--5--5--5--5--5--5--5--5--|--5--5---|
A|---7--7--7--|--7--7--7--7--7--7--7--7--|--------------------------|---------|
E|------------|--------------------------|--------------------------|---------|

G|---------------------|--------------------------|---------------------------|
D|---5--5--5--5--5-----|--------------------------|---------------------------|
A|------------------5--|--7--7--7--7--7--7--7--7--|--7--7--7--7--7--7--7--5---|
E|---------------------|--------------------------|---------------------------|

G|---|--------------------------|--------------------------|------------------|
D|---|--5--5--5--5--5--5--5--5--|--5--5--5--5--5--5--5-----|------------------|
A|---|--------------------------|-----------------------5--|--7--7--7--7--7---|
E|---|--------------------------|--------------------------|------------------|

                                                  3:40
G|------------|-----------------------------------|-----------------------|---|
D|------------|-----------------------------------|-----------------------|---|
A|---7--7--7--|--7--7--5--7-----7--5--7-----5-----|--3-----3--3-----2-----|---|
E|------------|-----------------------------------|-----------------------|---|

G|---------------------------|----------------------------|-------------------|
D|---------------------------|----------------------------|-------------------|
A|---------------------------|-------------------------5--|--3--3--3--3--3--3-|
E|---5--5--5--5--5-----3--3--|--1--1--1--1--1--1--3/5-----|-------------------|

G|--------------|-----------------------|--------------------------|----------|
D|--------------|-----------------------|--------------------------|--------3-|
A|--------3-----|--3-----3--3-----2-----|--------------------------|----------|
E|---3h5-----5--|-----------------------|--5--5--5--5--5-----3--3--|--1-------|

                                                  2nd Guitar Solo
G|------------------|-----------------------------|-----------------|---------|
D|------2-----------|-----------------------------|-----------------|---------|
A|------------5-----|--3--------3-----5--5--5--5--|-----------------|---------|
E|------------------|--------3--------------------|--3-----3--3-----|--3------|

G|---------------------------|-----------------|------------------------------|
D|---5-----------------------|-----------------|------------------------------|
A|---------------------5-----|--7--------------|-----------7--------------5---|
E|------3--3-----7-----------|--------0--0-----|--0--0--0-----0-----0---------|

G|------|-----------------|----------------------------------|----------------|
D|------|-----------------|-----------5----------------------|----------------|
A|------|-----------------|-------------------------5-----5--|--7-------------|
E|------|--3-----3--3-----|--3--3--3-----3---/7--------7-----|--------0--0--0-|

G|------|-----------------------------------|-----------------|---------------|
D|------|-----------------------------4-----|-----------------|-----------5---|
A|------|-----------7-----------------------|-----------------|---------------|
E|------|--0--0--0-----0--0--0-----2-----2--|--3-----3--3-----|--3--3--3------|

G|--------------------|-----------------|-------------------------------------|
D|--------------------|-----------------|-------------------------------------|
A|--------------5-----|--7--------------|-----------7-----------------5-------|
E|---3---/7-----------|--------0--0-----|--0--0--0-----0--0-----0--------0--2-|

G|---|-----------------|----------------------------------|------------------|
D|---|-----------------|-----------5----------------------|------------------|
A|---|-----------------|----------------------------5-----|--7---------------|
E|---|--3-----3--3-----|--3-----3-----3--3---/7-----------|--------0--0------|

                                         Fade Out
G|---------------------------------------|-----------------||--------------------|
D|------------------------2--------4-----|-----------------||--------------------|
A|------------7--------------------------|-----------------||--------------------|
E|---0--0--0-----0-----0--------2--------|--3--------------||--------------------|

************************************

| /    Slide up
| \    Slide down
| h    Hammer-on
| (n)  Ghost note
  

************************************
Suggest correction
comments
print report bad tab
2 comments total.
0 reply
SoftParade1967 502 Dec 01, 2007 09:38 AM

Amazing job man! Perfect! thanks for posting!

0 reply
oveja2112 2,447 May 08, 2013 08:30 AM

perfect tab!!

guest
You may want to rate the tab now too:
select rating
Wanna post a correction for this tab? Suggest correction