Oops, an error
Loading. Please wait.

Let There Be More Light Tab

version 1
version 1

Whole song

Interactive

18,580 views 51 this week
1 commentread comment
1 2 3 4 5
x 9
add to favorites
launch autoscroll
font size
0
reset
how to read this tab
guitar tuner
Autoscroll
slow
fast
+/-
esc
set tempo
stop
Help us to improve Ultimate-Guitar.com Take our survey!
×
Author
Artist: Pink Floyd
Album: A Saucerful of Secrets
Song: Let There Be More Light

Intro
|--------------------------|----------------------------------------------|
|--------------------------|----------------------------------------------|
|--------------------------|----------------------------------------------|
|---5---3---5---3---5------|---5---3---2---3---2---5---3---5---3---5------|
|---------------------(x8)-|-----------------------------------------(x2)-|
|-3---3---3---3---3--------|-3---3---3---3---3---3---3---3---3---3--------|

|--------------------------|----------------------------------------------|
|--------------------------|----------------------------------------------|
|--------------------------|----------------------------------------------|
|---5---3---5---3---5------|---5---3---2---1---0---5---3---5---3---5------|
|---------------------(x2)-|-----------------------------------------(x2)-|
|-3---3---3---3---3--------|-3---3---3---3---3---3---3---3---3---3--------|

|---------------------------------------------------------------------------------|
|---------------------------------------------------------------------------------|
|---------------------------------------------------------------------------------|
|---5---3---2---3---2---5---3---5---3---5---5---6---5---3---5---5---3---5---3---5-|
|---------------------------------------------------------------------------------|
|-3---3---3---3---3---3---3---3---3---3---3---3---3---3---3---3---3---3---3---3---|

|---------------------------------------------------------------------------------|
|---------------------------------------------------------------------------------|
|---------------------------------------------------------------------------------|
|---5---3---2---1---0---5---3---2---3---2---5---3---2---3---2---5---3---2---1---0-|
|---------------------------------------------------------------------------------|
|-3---3---3---3---3---3---3---3---3---3---3---3---3---3---3---3---3---3---3---3---|

|-----------------------------------------|--------------------------|
|-----------------------------------------|--------------------------|
|-----------------------------------------|--------------------------|
|---5---3---5---3---5---5---6---5---3---5-|---5---3---5---3---5------|
|-----------------------------------------|---------------------(x2)-|
|-3---3---3---3---3---3---3---3---3---3---|-3---3---3---3---3--------|

|---------------------|
|---------------------|
|---------------------|
|---5---6---5---3---5-|
|---------------------|
|-3---3---3---3---3---|

Preverse
|----------------------|
|----------------------|
|----------------------|
|-5--5--5h6p5---3-(x4)-|
|-------------5--------|
|----------------------|

Verse #1
|----------------------|-----------------|
|----------------------|-----------------|
|----------------------|-----------------|
|-5--5--5h6p5---3-(x5)-|-4h5p4h5p4h5p4h5-|
|-------------5--------|-----------------|
|----------------------|-----------------|

Chorus #1
|----------------------5-5-3-----------------------------|
|----3-----------------------5-3-0-5-5-5-3-----------2-4-|
|------5--------2-2-4-----------------------3-3-3-5------|
|-5---------5-5-0-0-2------------------------------------|
|-3---------3-3------------------------------------------|
|--------------------------------------------------------|

Verses #2
|----------------------|-----------------|
|----------------------|-----------------|
|----------------------|-----------------|
|-5--5--5h6p5---3-(x3)-|-4h5p4h5p4h5p4h5-|
|-------------5--------|-----------------|
|----------------------|-----------------|

Chorus #2
|----------------------5-5-3-----------------------------|
|----3-----------------------5-3-0-5-5-5-3-----------2-4-|
|------5--------2-2-4-----------------------3-3-3-5------|
|-5---------5-5-0-0-2------------------------------------|
|-3---------3-3------------------------------------------|
|--------------------------------------------------------|

Verses #3
|----------------------|-----------------|
|----------------------|-----------------|
|----------------------|-----------------|
|-5--5--5h6p5---3-(x3)-|-4h5p4h5p4h5p4h5-|
|-------------5--------|-----------------|
|----------------------|-----------------|

Chorus #3
|----------------------5-5-3-----------------------------|
|----3-----------------------5-3-0-5-5-5-3-----------2-4-|
|------5--------2-2-4-----------------------3-3-3-5------|
|-5---------5-5-0-0-2------------------------------------|
|-3---------3-3------------------------------------------|
|--------------------------------------------------------|

Verse #4
|-------------------------------------------------------------------|
|-------------------------------------------------------------------|
|-------------------------------------------------------------------|
|-5--5--5h6p5---3-5--5---5h6p5---3-5-3-5--5h6p5---3-4h5p4h5p4h5p4h5-|
|-------------5----------------5----------------5-------------------|
|----------------------3--------------------------------------------|

Chorus #4
|-------8-6--------------------5-3-5-5-3-----------5-3--5-3-----------|
|-----------9-8-6------------------------3-5-3-5-3--------------------|
|-----------------8-5---2-2-4--------------------------------6--5-3-0-|
|-5-------------------5-0-0-2-----------------------------------------|
|-3-------------------3-----------------------------------------------|
|---------------------------------------------------------------------|

Solo
|------------12-12-10--------------------------------------------------------------|
|-10-10-----------------12h13p12-12-10h12------------------------------------------|
|-------12--------------------------------12---12-12-12-10--12---12b-12---------12-|
|-------------------------------------------------------------------------12-12----|
|----------------------------------------------------------------------------------|
|----------------------------------------------------------------------------------|

|-----------10---13-12-13--15-13-15--17-15---10--11-10-----10------------------|
|-11-13-13---------------------------------------------13----------------------|
|---------------------------------------------------------------12---12\-5h6-7-|
|------------------------------------------------------------------------------|
|------------------------------------------------------------------------------|
|------------------------------------------------------------------------------|

|------------5------7-7-8p7----8h10--12h13-12h13-12h13--13-12-10---------------|
|-6-5-6--8-6----8-----------10------------------------------------13-12-10--12-|
|------------------------------------------------------------------------------|
|------------------------------------------------------------------------------|
|------------------------------------------------------------------------------|
|------------------------------------------------------------------------------|

|----------------13-12-13--15--13--12--13---10-12-------10-----------------|
|-------------------------------------------------12h13----12-12h13-----12-|
|-12h14p12--12------------------------------------------------------12-----|
|--------------------------------------------------------------------------|
|--------------------------------------------------------------------------|
|--------------------------------------------------------------------------|

|----------------------------------------------------------------------------------|
|-------------------------------------------------------------------------10-10----|
|-12h14p12----------------------------------------------------------------------12-|
|----------15--14h15p14-14-14p12--------------------------12--14--14h15------------|
|--------------------------------13-14---12h14--12h14h15---------------------------|
|----------------------------------------------------------------------------------|

|-15-17-15--15-22-15-----------------------------10---10-12-12-10-12-12-10-12h13-|
|-----------------------11-12-13--11---12-12h13----------------------------------|
|--------------------------------------------------------------------------------|
|--------------------------------------------------------------------------------|
|--------------------------------------------------------------------------------|
|--------------------------------------------------------------------------------|

|-13p12-13p12-10--12-10-12-10-12h13-13p12-13h15--15-13-12h13p12-10-|
|------------------------------------------------------------------|
|------------------------------------------------------------------|
|------------------------------------------------------------------|
|------------------------------------------------------------------|
|------------------------------------------------------------------|

|---------------------------15-13-12h13p12-10--------------------------|
|----------12h13p12-13h15---------------------12-12-13-12-10--12-10----|
|-12h13p12----------------------------------------------------------12-|
|----------------------------------------------------------------------|
|----------------------------------------------------------------------|
|----------------------------------------------------------------------|

|--------------------------------------------------------------------------|
|---------------------------------------------------------11-13--14b-11----|
|-10-12-10p9h10------------------12-----12----12-14b-12-----------------12-|
|-----------------12-14-14-12-14----15-----15------------------------------|
|--------------------------------------------------------------------------|
|--------------------------------------------------------------------------|

|-----------------------------------------------------|
|-----------------------------------------------------|
|-------10----10--14b-12----------10----10--14b-14-12-|
|-11h12----12--------------11h12-----12---------------|
|-----------------------------------------------------|
|-----------------------------------------------------|

There's a few more notes I didn't get, but they are too hard to hear. Anyway, enjoy.
Suggest correction
comments
print report bad tab
1 comment total.
0 reply
Thefallofman 811 Apr 11, 2007 12:15 PM

From watching a video of a show from 68 or 69, I now know that it's a bass playing the intro... though this can easily be transferred to guitar (as you have correctly). Nice tab, one of the best songs from Saucerful.

guest
You may want to rate the tab now too:
select rating
Wanna post a correction for this tab? Suggest correction