Oops, an error
Loading. Please wait.

Money tab

version 1
version 1
416,490 views 795 this week
27 commentsread comments
1 2 3 4 5
x 80
add to favorites
×
Save as Personal and add changes to this tab that will be seen only by you. Learn more ›
×
You can save this tab as Personal to edit and correct it or add notes. All changes will be seen only by you. Learn more »
launch autoscroll
font size
0
reset
how to read this tab
guitar tuner
backing track
0:00
0:00
edit
Autoscroll
slow
fast
+/-
esc
set tempo
stop
Author
Unregistered
Money
Pink Floyd

[CHORDS]
B5-  x-2-4-4-o-x
F#m- 2-4-4-2-2-2
Em-  0-2-2-0-0-0


 Gtr 1
e|--------------------------|----------------------------|
B|--------------------------|----------------------------|
G|----2---------------------|----4-----------------------|
D|-------4------------------|-------5--------------------|
A|-2--------2---------2--5b-|-2--------2--------2--x--5b-|
E|-------------2--5b--------|-------------2--5-----------|

                                Riff A- - - - - - - - - - - |
e|-----------------------------|-----------------------------|
B|-----------------------------|-----------------------------|
G|----4------------------------|----4------------------------|
D|-------4---------------------|-------4---------------------|
A|-2--------2--x---------2--5b-|-2--------2--x---------2--5b-|
E|----------------2--5b--------|----------------2--5b--------|

 Gtr 2 Plays Riff A 4X
 Gtr 2 (chords, w/ tremolo)
 Gtr 1 (tabbed)
    B5                                      B5
e|--------------------|-----------------------|-------------------------|
B|-----7--7------7----|----7--7----7----7-----|----7--7----7-----7------|
G|-----7--7------7----|----7--7----7----7-----|----7--7----7-----7------|
D|-----7--7-----------|----7--7---------7-----|----7--7----------7------|
A|--------------------|-----------------------|-------------------------|
E|--------------------|-----------------------|-------------------------|

                        %
                        Verse 1,2,3
                        Play Riff A 8X
                        B5                                        B5
e|---------------------||--------------------|----------------------|
B|----7--7----7----7---||---7--7-----7-------|------7--7-----7------|
G|----7--7----7----7---||o--7--7-----7-------|------7--7-----7------|
D|----7--7---------7---||o--7--7-----7-------|------7--7-----7------|
A|---------------------||--------------------|----------------------|
E|---------------------||--------------------|----------------------|

                                              B5
e|------------------|-----------------------|-----------------------|
B|-7b---7b----------|----7--7----7----7-----|---7--7----7----7------|
G|-7b---7b----------|----7--7----7----7-----|---7--7----7----7------|
D|------------------|----7--7---------7-----|---7--7---------7------|
A|------------------|-----------------------|-----------------------|
E|------------------|-----------------------|-----------------------|

                   B5
e|-------------------|---------------------|-----------------|
B|--7--7---7----7----|---7--7-----7----7---|-7b-----7b-------|
G|--7--7---7----7----|---7--7-----7----7---|-7b-----7b-------|
D|--7--7--------7----|---7--7----------7---|-----------------|
A|-------------------|---------------------|-----------------|
E|-------------------|---------------------|-----------------|

                     Gtr 1 and 3 (tabbed)
                     Gtr 2 (chords)                            3rd time
                     F#m                              Em       to CODA
e|-------------------|------------------------|----------------------------|
B|-7--7----7-----7---|------------------------|----------------------------|
G|-7--7----7-----7---|------------------------|----------------------------|
D|-7--7----------7---|-4--4--4--------------4-|--3--2----------------------|
A|-------------------|----------4--------4----|--------2--------0-0-2-2-5b-|
E|-------------------|-------------2--5-------|-----------0--3-------------|


Gtr 1 plays Riff A 2X
Gtr 3 (tabbed)
  B5                   |-1- - - - - - - - -|
e|--------------------|---------------------||
B|--7--7----7----7----|---7--7----7----7----||
G|--7--7----7----7----|---7--7----7----7---o||
D|--7--7---------7----|---7--7---------7---o||
A|--------------------|---------------------||
E|--------------------|---------------------||


                            Sax solo
 |-2- - - - - -             Gtr 3
 B5                         Gtr 1 plays Riff A 8X                 4X
e|----10--10\--------------||------------------|-------------------||
B|----10--10\---7-----7----||---7--7---7---7---|---7--7---7---7----||
G|--------------7-----7----||o--7--7---7---7---|---7--7---7---7---o||
D|--------------7-----7----||o--7--7-------7---|---7--7-------7---o||
A|-------------------------||------------------|-------------------||
E|-------------------------||------------------|-------------------||


|- - - - - - - - - - - - - - - - - - - - - - - - - -  -|
|  Rhy Fig 1               Rhy Fig 2                   |
| e|-2---2----------------||-7---7-----------------||  |
| B|-3---3----------------||-8---8-----------------||  |
| G|-4---4----------------||-9---9-----------------||  |
| D|----------------------||-9---9-----------------||  |
| A|---------2----2----2--||-----------------------||  |
| E|----------------------||---------0----0----0---||  |
|                                                      |
|- - - - - - - - - - - - - - - - - - - - - - - - - -  -|


    *Em                         4X *B5                      4X
|e ||----------------------------||--------------------------||
|B ||----------------------------||--------------------------||
|G ||o----9---------------------o||----4--------------------o||
|D ||o-------9------------------o||-------4-----------------o||
|A ||--7--------7---------7--10b-||-2--------2--------2--5b--||
|E ||--------------7--10---------||-------------2--5---------||
|   *1st and 3rd times only
|
|e ||----------------------------||--------------------------||
|B ||-----8--8-----8------8------||----7--7-----7------7-----||
|G ||o----9--9-----9------9-----o||----7--7-----7------7----o||
|D ||o----9--9-----9------9-----o||----7--7------------7----o||
|A ||-----7--7-----7------7------||--------------------------||
|E-||----------------------------||--------------------------||


Gtr 1 and 3 (tabbed)
Gtr 2 (chords)
   F#m                        Em
e|---------------------------|--------------------------|
B|---------------------------|--------------------------|
G|---------------------------|--------------------------|
D|--4--4--4---------------4--|-3--2---------------------|
A|-----------4---------4-----|-------2---------0--2--5b-|
E|--------------2--5b--------|----------0--3b-----------|


e||---------------------------||
B||---------------------------||
G||o-4-4-4-4-4-4-4-4-4-4-4-4-o||
D||o-4-4-4-4-4-4-4-4-4-4-4-4-o||
A||--2-2-2-2-2-2-2-2-2-2-2-2--||
E||---------------------------||


   Gtr 3+4 (Reverb and Delay)
| e|--------------~~~~~~|~~~~~~-----------|----------------------10-----|
| B|-----~~~~~-10b------|-------r--7--10--|-------~~~~~~~~~-/12------12-|
| G|-9b--7--------------|-----------------|-9b---7----------------------|
| D|--------------------|-----------------|-----------------------------|
| A|--------------------|-----------------|-----------------------------|
| E|--------------------|-----------------|-----------------------------|
|
|  Gtr 1
|  Riff B- - - - - - -| Play Riff B, 7X
| e|--------------------|
| B|--------------------|
| G|--------------------|
| D|--------------------|
| A|-2----5---4---3---2-|
|-E|--------------------|
    Pm- - - - - - - - |


e|--~~~~~~~~~~~~~--------|-12b--------~~~~~~~-|-----------------|
B|-12-------------12--12-|--------12-12-------|-----------------|
G|-----------------------|--------------------|-----9b----7--9--|
D|-----------------------|--------------------|-----------------|
A|-----------------------|--------------------|-----------------|
E|-----------------------|--------------------|-----------------|

e|--------------------|-7-------------10--12--12b--r--|
B|------------------7-|----10--10p12------------------|
G|--~~~~~~~~~~-9b-----|-------------------------------|
D|-9------------------|-------------------------------|
A|--------------------|-------------------------------|
E|--------------------|-------------------------------|

| e|---------10------12b-|-----12b--r--10--12-|--~~~~~--------------------|
| B|-12--12--------------|--------------------|-12-----10b----------------|
| G|---------------------|--------------------|-------------11\9-------7b-|
| D|---------------------|--------------------|---------------------------|
| A|---------------------|--------------------|---------------------------|
| E|---------------------|--------------------|---------------------------|
|
|
| e|---------------------|--------------------|---------------------------|
| B|------------8--------|-------8------------|------------------8---8----|
| G|------------9--------|-------9------------|------------------9---9----|
| D|------------9--------|-------9------------|----------9-----------9----|
| A|------------7--------|-------7------------|----7----------------------|
|-E|---------------------|--------------------|---------------------------|

|-e|--------------------------|-------------------|--------------------7-|
| B|--------------------------|-------------------|------------------7---|
| G|--~~~~~-------------------|-------------------|-7-7--~~~~~---9b------|
| D|-9------7-----------------|---------7---9p7---|------9---------------|
| A|-----------9\7----5b---~~~|~~~-7/9------------|----------------------|
| E|----------------------7---|-------------------|----------------------|
|
|                             Play Riff B, 4X
| e|--------------------------|
| B|------------------8---8---|
| G|------------------9---9---|
| D|-----------9----------9---|
| A|----7---------------------|
|-E|--------------------------|


e|----------------10-12-|-12b--------~~~~~~~-14b-|
B|-10-10h12-12-12-------|--------12-12-----------|
G|----------------------|------------------------|
D|----------------------|------------------------|
A|----------------------|------------------------|
E|----------------------|------------------------|

|-e|-------14--12--10---|------------------------|----------------|
| B|--------------------|-12-10---------~~~~-10b-|--10--8--7------|
| G|--------------------|-------11/9-9/11--------|----------------|
| D|--------------------|------------------------|----------------|
| A|--------------------|------------------------|----------------|
| E|--------------------|------------------------|----------------|
|
|
| e|--------------------|------------------------|----------------|
| B|--------------------|------------------------|----------------|
| G|--------------------|-Play last--------------|----------------|
| D|-----4---3-----2--x-|-measure----------------|-9--7-----------|
| A|--------------------|------------------------|-------10--9--5-|
|-E|-2------------------|------------------------|----------------|
    Pm- - - - - - - - -|


|-e|-------------------|---------------------|--------------||
| B|-9b--7-------------|---------7--b--------|-----9--b-----||
| G|---------11------~~|~~~~~~~--7--b--------|~~~~-9--b-----||
| D|------------10--9--|-------------------9-|------------9-||
| A|-------------------|---------------------|--------------||
| E|-------------------|---------------------|--------------||
|
|                                            Play Riff B, 3X
| e|-------------------|---------------------|
| B|-------------------|---------------------|
| G|-------------------|---------------------|
| D|-------------------|---------------------|
| A|-7---5---4---3-----|-2----5------4--3--2-|
|-E|-------------------|---------------------|
                        Pm- - - - - - - - -|


  Gtr 3
e|-7-----------7-|-----------------~~|----10-------|----------------|
B|-7----x------7-|----------/12--12--|-12--------7-|----------~~~~~-|
G|---------------|-------------------|-----------7-|---------9b-----|
D|---------------|-------------------|-------------|-9--------------|
A|---------------|-------------------|-------------|----------------|
E|---------------|-------------------|-------------|----------------|

e|-----------------|--------------|--------------|--7---------------|
B|-----------------|--7----7------|--------------|-------------7b---|
G|-7--9------~~~~~-|--7----7------|-----------9b-|-------------9b---|
D|-------9--9------|--7----7------|-7h9----------|------------------|
A|-----------------|--------------|--------------|------------------|
E|-----------------|--------------|--------------|------------------|

e|--~~~~~~~~~~~--|--------------|------------------------|-------------|
B|-7b------------|--------------|------~~~~~~------------|-----~~~~~---|
G|-9b------------|------9b-r-p7-|-9b--9b--------r-p0--7b-|--r-b------r-|
D|---------------|--------------|------------------------|-------------|
A|---------------|--------------|------------------------|-------------|
E|---------------|--------------|------------------------|-------------|
                                 PH

e|------------------10-|------------10---|-12b--12b-------r--|
B|----------x---/12----|--------10-------|-------------------|
G|--~~~~~~~------------|-----------------|-------------------|
D|-9-------------------|-----------------|-------------------|
A|---------------------|-----------------|-------------------|
E|---------------------|-----------------|-------------------|

e|-12p10-----------|----------------------|-----------------|
B|----------10-10--|-10-------~~~~~~~-----|------~~~~~------|
G|-----------------|----9/10/11--------9b-|--r--b------r--\-|
D|-----------------|----------------------|-----------------|
A|-----------------|----------------------|-----------------|
E|-----------------|----------------------|-----------------|

e|---------------------|------------------|------------------|
B|---------------------|------------------|--------7--b------|
G|--~~~~~--------------|------------------|--------7--b------|
D|-9-----7-------------|------------------|----------------9-|
A|----------10----9--5-|-7--5--4--0--3--2-|------------------|
E|---------------------|------------------|------------------|

                     (Gtr 4)
e|-------------------|-----------------------|-(10)-(12)-(12)b--(12)b-----||
B|---------9--b------|-------------(10)-(12)-|----------------------------||
G|~~~~~~---9--b------|-----7-/(11)-----------|----------------------------||
D|------9---------9--|---------------------9-|----------------7---------9-||
A|-------------------|-----------------------|----------------------------||
E|-------------------|-----------------------|----------------------------||

   Gtr 4
|-e|-10-12--~~~~~~---|---19-22b---r-22-22-|-22----~~~~~-----------|
| B|-------12-----\--|--------------------|----22b------22b-\-----|
| G|-----------------|--------------------|-----------------------|
| D|-----------------|--------------------|-----------------------|
| A|-----------------|--------------------|-----------------------|
| E|-----------------|--------------------|-----------------------|
|
|  Gtr 3             Riff C- - - - - - -|
| e|-----------------|--------------------|-----------------------|
| B|-------7---------|-------7-7---x-9\---|--------7-7---x-9\-----|
| G|-------7---------|-------7-7---x-9\---|--------7-7---x-9\-----|
| D|-------7---------|--------------------|-----------------------|
| A|-----------------|--------------------|-----------------------|
|-E|-----------------|--------------------|-----------------------|


Gtr 3 (play last meas.)
Gtr 4                  Gtr 3 plays Riff C, 4X
e|---------------------|------------------|------------------|
B|-------15-17b--15b-r-|--~~~~~~~~-x-17b--|------r--17--15b--|
G|--/16----------------|-16---------------|------------------|
D|---------------------|------------------|------------------|
A|---------------------|------------------|------------------|
E|---------------------|------------------|------------------|

e|------------------------|------------------10-|
B|--~~~~~~~~~-------------|---~~~~~~~~~-/12-----|
G|-16-----------9---7---9-|-/11-----------------|
D|------------------------|---------------------|
A|------------------------|---------------------|
E|------------------------|---------------------|


   Gtr 1 plays Rhy Fig 2, 4X
|-e|--~~~~~~~~~~---------|-22b--------22-22--|-22---~~~~~~~-----|
| B|-12---------------19-|-------------------|----22b-------22b-|
| G|---------------------|-------------------|------------------|
| D|---------------------|-------------------|------------------|
| A|---------------------|-------------------|------------------|
| E|---------------------|-------------------|------------------|
|
|  Riff D- - - - - - - |  Play Riff D 3X
| e|---------------------|-------------------|
| B|------12-12---x--14--|-------------------|
| G|------12-12---x--14--|-------------------|
| D|------12-12---x--14--|-------------------|
| A|---------------------|-------------------|
|-E|---------------------|-------------------|
                        Gtr 1 plays Rhy Fig 1, 4X
                        Gtr 3 plays Riff C, 4X
e|-------~~~~~----------|-----------------|-----------------|
B|--r-22b------------~~~|~~~~~~~-----19b--|-19-----22b-22b--|
G|-------------21b--19--|--------21--21b--|-----------------|
D|----------------------|-----------------|-----------------|
A|----------------------|-----------------|-----------------|
E|----------------------|-----------------|-----------------|

e|---22----~~~~~~~~-|------22b--r--22--22-|
B|-------22b--------|---19----------------|
G|------------------|---------------------|
D|------------------|---------------------|
A|------------------|---------------------|
E|------------------|---------------------|


|-e|-22-------------------------|--------------------------|
| B|-----22b---19--22p19--------|--------------------------|
| G|----------------------19~~~-|--------------------------|
| D|----------------------------|-21p19---19---~~~~~~~-----|
| A|----------------------------|-------------21-------x---|
| E|----------------------------|--------------------------|
|
|
| e|----------------------------|--------------------------|
| B|-----------14-14----16\-----|---------14--14-----------|
| G|-----------14-14----16\-----|---------14--14------16---|
| D|-----------14-14----16\-----|---------14--14-----------|
| A|----------------------------|--------------------------|
|-E|----------------------------|--------------------------|

                                           Play Riff A, 2X
    B5                                     B5
|-e|---------------~~~~~-----|------------|
| B|-16b----10----6-----7----|------------|
| G|-------------------------|-9--7--6--5-|
| D|-------------------------|------------|
| A|-------------------------|------------|
| E|-------------------------|------------|
|
|
| e|-------------------------|------------|------------------|
| B|-------------------------|------------|----7-7---7---7---|
| G|-------------------------|------------|----7-7---7---7---|
| D|---9----7----------------|------------|----7-7---7---7---|
| A|-------------10-----9--6-|-7--5--4--3-|-2----------------|
|-E|-------------------------|------------|------------------|


[Coda]

 Riff D          Riff E
 *B5            3X               4X
e||--------------||---------------||---7--7--------|
B||-----7-7------||-----7-7---9---||---9--9-----7--| Play Riff D 5X
G||o----7-7-----o||o----7-7---9--o||---7--7-----7--|
D||o----7-7-----o||o----7-7---9--o||---------------|
A||--------------||---------------||---------------|
E||--7-------10b-||--7------------||---------------|
 *1st time only

e|--------------|-----------------|---~~~~---------|
B|--------------|----------10-10b-|-10b------------|
G|------9b---7--|-~~~~~~----------|----------9b--7-|
D|--------------|-9---------------|----------------|
A|--------------|-----------------|----------------|
E|-7------------|-----------------|----------------|

e|--------------12b-|~~~~~----------|-----------------|-------------|
B|----------10------|------12b--10--|-12~~~~~---------|-------------|
G|--~~~~------------|---------------|-----------9b--7-|--~~~~~~-----|
D|-9----------------|---------------|-----------------|-9--------9--|
A|------------------|---------------|-----------------|-------------|
E|------------------|---------------|-----------------|-------------|

e|---------------7-|----------------------~~~-|------------|
B|-----------------|-10-10b--10b-r-10b-10b----|-----10-10--|
G|-7---------9b----|--------------------------|------------|
D|-7---~~~~--------|--------------------------|------------|
A|----9------------|--------------------------|------------|
E|-----------------|--------------------------|------------|

e|--------------|----------------------------||
B|-10--~~~~~----|----------------------------||
G|----9b--------|-9b-9b-9b-9b-9b----9b-9b----||
D|--------------|----------------------------||
A|--------------|----------------------------||
E|--------------|----------------------------||


************************************

| x    Dead note
| (n)  Ghost note
| h    Hammer-on
| p    Pull-off
| r    Release
| b    Bend
| /    Slide up
| \    Slide down
| ~    Vibrato
| PM   Palm Mute

************************************

            
            
Suggest correction
Creating personal tab
Creating personal tab
You can edit any tab online and save it as your Personal.

You can edit, replace or remove any tab part or add personal notes – all changes will be seen only by you.

Personal tabs can be accessed anytime from any device, even offline.
Learn more »
comments
print report bad tab
27 comments total. Showing first comments.
-1 reply
Floyd84yu 50 Apr 16, 2002 08:00 PM

Pretty good...
I think...
Anyway, keep on tabbing!

-2 reply
perfectfifth 10 Jan 20, 2004 07:00 PM

fahobagads

0 reply
tcr_viper 103 Jul 15, 2005 08:00 PM

solo=crap
the rest=good

solo is all wrong

guest
Wanna post a correction for this tab? Suggest correction